Cifra Club

Aprenda

Hells Bells

AC/DC

Tab de baixo: Versão 3
Intro/Chorus
|---------------------------------------------------------------|
|---------------------------------------------------------------|
|0-0-0-0-0-0-0-0-0-0-0-0-0-0-0-0-0-0-0-0-0-0-0-0-0-0-0-0-0-3-2-0|
|---------------------------------------------------------------|

On second time play this at the end
|-----------|
|-----------|
|----5-3-2-0|
|3-3--------|

Last Chorus play top part 2 times then at end instead of 3-2-0 play:
|-----------|
|-----------|
|3-3-3-5-5-5|
|-----------|

Verse 1st part
|---------------------------|
|---------------------------|
|0-0-0-0-0-0-0-0-5-5-5-5-3-2|
|---------------------------|

Verse 2nd part
|-------------------------|
|-------------------------|
|5-5-5-5-5-5-5-5-5-5-5-3--|
|-----------------------3-|

Verse 3rd Part
|-----------------------|
|-----------------------|
|7-7-7-7-7-7-7-7-7-7-5-0|
|-----------------------|

Bridge 1st part
|-------|------------------------------------------------|
|-------|------------------------------------------------|
|3~3~|0-0-0-0-0-3-3-3-3-5-5-5-5-0-0-0-0-3-3-3-3-5-5-5-5-5|
|-------|------------------------------------------------|

Bridge 2nd part same as 2nd & 3rd part of verse

Outro:
|-------------------|
|-------------------|
|0-3~5~-------------|
|-3-------5-3-5-----|

Order:
Intro x2
Verse 1st x5
Verse 2nd x2
Verse 3rd x2
Intro/Chorus x2
Verse 1st x5
Verse 2nd x2
Verse 3rd x2
Intro/ Chorus x2
Bridge 1st x2
Verse 2nd x2
Verse 3rd x2
Inro/Chorus x5
Bridge 1st x4
Outro x1
Composição de Angus Young / Brian Johnson / Malcolm Young
Colaboração e revisão:
  • Taino Vieira
201 exibições

0 comentários

Mostrar mais comentários

Conseguiu tocar?

0 Tocaram 0 Ainda não

Grave um vídeo tocando Hells Bells e mande pra gente!

00:00 / 00:00
outros vídeos desta música
repetir qualidade Automático
Outros vídeos desta música
00:00 / 00:00
Automático
OK