Cifra Club

Aprenda

Highway To Hell

AC/DC

Tab de baixo: Principal
G|----------------------------------------------------|
D|----------------------------------------------------|
A|----------------------------------------------------|
E|--0---0-0-0--0-0-0--0-0-0--0-0-0-0------------------|

G|----------------------------------------------------|
D|------------------5--7------------------------------|
A|--0-0-0-0-0-0-----------0-0-0-0---5-----------------|
E|----------------------------------------------------|

G|----------------------------------------------------|
D|----------------------------------------------------|
A|----------------------------------------------------|
E|--0---0-0-0--0-0-0--0-0-0--0-0-0--0-----------------|

G|---------------------------------------------------|
D|---------------------5--4-------------------5--7---|
A|--0-0-0-0-0-0-----------0-0-0-0-0-0----------------|
E|---------------------------------------------------|

G|---------------------------------------------------|
D|---------------------5--7-------------------5--4---|
A|--0-0-0-0-0-0-----------0-0-0-0-0-0----------------|
E|---------------------------------------------------|

G|---------------------------------------------------|
D|---------------------------------------------------|
A|--0-0-0-0-0---------------0-0-0-0--5---------------|
E|----------------0-2-0-3-2--------------------------|

G|--------------------------------------------------|
D|--------------------------------------------------|
A|--5-5-5---5-5-5---5--5-5-5---5-5-5----------------|
E|--------------------------------------------------|

G|--------------------------------------------------|
D|--------------------------------------------------|
A|--5-5-5--5-5-5-5----------------------------------|
E|-----------------------0-3-0----------------------|

G|--------------------------------------------------|
D|-----------------5--4---------------------5--4----|
A|--0-0-0-0-0-0-----------0-0-0-0-0--0-5-7----------|
E|--------------------------------------------------|

G|--------------------------------------------------|
D|-----------------5--7-----------------------------|
A|--0-0-0-0-0-0----------0-0-0-0-0-0----------------|
E|------------------------------------3-5-0-2-0-3-2-|

G|--------------------------------------------------|
D|---------------------5--4-------------------5--7--|
A|--0-0-0-0-0-0-----------0-0-0-0-0-0---------------|
E|--------------------------------------------------|

G|--------------------------------------------------|
D|------------------------------------------------5-|
A|--0-0-0-0-0----------------0-0-0-0--5-------5-----|
E|-----------------0-2-0-3-2------------------------|

G|--------------------------------------------------|
D|--------------------------------------------5-7---|
A|--0-0-0-0-0-0-0-0-0-0-0-0-0-0---------------------|
E|--------------------------------------------------|

G|--------------------------------------------------|
D|--------------------------------------------------|
A|-0-0-0-0-0-0-0-0-0-0-0-0-0-0-0-0-0-0-0-0...-------|
E|-----------------------------------------------5/-|
Composição de Angus Young / Bon Scott / Malcolm Young
Colaboração e revisão:
91.649 exibições

0 comentários

Ver todos os comentários
00:00 / 00:00
Outros vídeos desta música
Repetir Qualidade Automático
Outros vídeos desta música
00:00 / 00:00
Automático
Capítulos
  • Tocando a Música
  • Dicas Iniciais / Equipamentos
  • Configurações do Pedal
  • Ensinando Primeira Parte e Refrão
  • Ensinando Segunda Parte e Segundo Refrão
  • Ensinando o Solo
  • Ensinando o Terceiro Refrão
  • Encerramento
  • Ficha Técnica / Erros de Gravação

Cifra Club Pro

Aproveite o Cifra Club com benefícios exclusivos e sem anúncios
Cifra Club Pro
Aproveite o Cifra Club com benefícios exclusivos e sem anúncios
OK