Let There Be Rock

AC/DC

Composição de: Angus Young / Bon Scott / Malcolm Young
tom: D
  Intro:
E|-------------------||--------------------------|-------------------------|
B|-------------------||--------------------------|-------------------------|
G|----------------0--||*----------------------0--|----------------------0--|
D|----------------0--||*----2--2--------------0--|----2--2--------------0--|
A|-------------------||-----2--2--2--2--2--2-----|----2--2--2--2--2--2-----|
E|----------------3--||-----0--0--0--0--0--0--3--|----0--0--0--0--0--0--3--|
                                                   2x
|------------------------|--------------------------||-------------------------|
|------------------------|--------------------------||-------------------------|
|----------2----------0--|----------------------0--*||----------------------0--|
|----2--2--2----2--2--0--|----2--2--------------0--*||----2--2--------------0--|
|----2--2--0----2--2-----|----2--2--2--2--2--2------||----2--2--2--2--2--2-----|
|----0--0-------0--0--3--|----0--0--0--0--0--0--3---||----0--0--0--0--0--0--3--|

|-------------------------|------------------------|------------------------|
|-------------------------|------------------------|------------------------|
|----------------------0--|----------2----------0--|------------------------|
|----2--2--------------0--|----2--2--2----2--2--0--|----2--2----------------|
|----2--2--2--2--2--2-----|----2--2--0----2--2-----|----2--2--2--2--2--2----|
|----0--0--0--0--0--0--3--|----0--0-------0--0--3--|----0--0--0--0--0--0----|

                   between verses:
|------------------|-----------------------|------------------------|
|------------------|-----------------------|------------------------|
|------------------|----2--x----x----2--2--|----2--x----x--x--2--2--|
|------------------|----2--x----x----2--2--|----2--x----x--x--2--2--|
|------------------|----0--x----x----0--0--|----0--x----x--x--0--0--|
|------------------|-----------------------|------------------------|

|-----------------------|------------------------|-----------------------|
|-----------------------|------------------------|-----------------------|
|----2--x----x----2--2--|----2--x----x--x--2--2--|----2--x----x----2--2--|
|----2--x----x----2--2--|----2--x----x--x--2--2--|----2--x----x----2--2--|
|----0--x----x----0--0--|----0--x----x--x--0--0--|----0--x----x----0--0--|
|-----------------------|------------------------|-----------------------|

|------------------------|-----------------------|------------------------|
|------------------------|-----------------------|------------------------|
|----2--x----x--x--2--2--|----2--x----x----2--2--|----2--x----x--x--2--2--|
|----2--x----x--x--2--2--|----2--x----x----2--2--|----2--x----x--x--2--2--|
|----0--x----x--x--0--0--|----0--x----x----0--0--|----0--x----x--x--0--0--|
|------------------------|-----------------------|------------------------|
Página 1 / 1

Letras e título
Acordes e artista

resetar configurações
OK