Cifra Club

Let There Be Rock

AC/DC

Cifra: Principal (violão e guitarra)
exibições 35.727
Tom: A
[Intro/Riff 1] 

E|----------------------------------------------------------------|
B|----------------------------------------------------------------|
G|-------------------------------------------2--------------------|
D|-0--2-2-------------0--2-2-----------0-2-2-2-2-2-0-2-2----------|
A|-0--2-2-------------0--2-2-----------0-2-2-0-2-2-0-2-2----------|
E|-3--0-0--0-0-0-0-0--3--0-0-0-0-0-0-0-3-0-0---0-0-3-0-0-0-0-0-0-0|

[Riff 2]

E|------------------------------------------------------------|
B|------------------------------------------------------------|
G|-2-2--x---x-2-2--x---x-2-2--x---x-2-2--x---x-2-2--x---x-2-2-|
D|-2-2--x---x-2-2--x---x-2-2--x---x-2-2--x---x-2-2--x---x-2-2-|
A|-0-0--x---x-0-0--x---x-0-0--x---x-0-0--x---x-0-0--x---x-0-0-|
E|------------------------------------------------------------|

E|------------------------------------------------------------|
B|------------------------------------------------------------|
G|-x---x-2-2--x---x-2-2--x---x-2-2--x-------------------------|
D|-x---x-2-2--x---x-2-2--x---x-2-2--x-------------------------|
A|-x---x-0-0--x---x-0-0--x---x-0-0--x-------------------------|
E|------------------------------------------------------------|

[Solo 1]

E|------------------------------------------------------------|
B|------------------------------------------------------------|
G|-------------------------------------5--7-7(9)-7-5--7-5~~~~-|
D|---7---7---7-\-------7---7---7\----7------------------------|
A|------------------------------------------------------------|
E|------------------------------------------------------------|

E|------------------------------------------------------------|
B|------------------------------------------------------------|
G|---5-7-7(9)-7-5-7---5-7-7(9)-7---5-5-----5---5-5---5-5--5-5-|
D|-7----------------7------------7-----7-7---7-----7----7-----|
A|------------------------------------------------------------|
E|------------------------------------------------------------|

E|------------------------------------------------------------|
B|------------------------------------------------------------|
G|---5-5---5-5---5---5-5---5-5---5-5---5-5---5-5---5-5---5-5--|
D|-7-----7-----7---7-----7-----7-----7-----7-----7-----7------|
A|------------------------------------------------------------|
E|------------------------------------------------------------|

E|------------------------------------------------------------|
B|------------------------------------------------------------|
G|---5-5---5-5---7---7-7---7-7---7-7---7-7---7---7-7---7-7----|
D|-7-----7-----7---9-----9-----9-----9-----9---9-----9--------|
A|------------------------------------------------------------|
E|------------------------------------------------------------|

E|--------------------------17--------------------------------|
B|-------------------20(22)----20-17--------------------------|
G|---7-7---7-7---7-------------------17-17----19-17-----------|
D|-9-----9-----9---------------------------19-------19--------|
A|------------------------------------------------------------|
E|------------------------------------------------------------|

E|-5-------5-5-------5-5-------5-5-------5-5-------5-------5~-|
B|---8(10)-----8(10)-----8(10)-----8(10)-----8(10)---8(10)----|
G|------------------------------------------------------------|
D|------------------------------------------------------------|
A|------------------------------------------------------------|
E|------------------------------------------------------------|

E|-12h14p12h14p12h15~-----------------------------------------|
B|------------------------------------------------------------|
G|------------------------------------------------------------|
D|------------------------------------------------------------|
A|------------------------------------------------------------|
E|------------------------------------------------------------|

[Riff 1]

E|----------------------------------------------------------------|
B|----------------------------------------------------------------|
G|-------------------------------------------2--------------------|
D|-0--2-2-------------0--2-2-----------0-2-2-2-2-2-0-2-2----------| 
A|-0--2-2-------------0--2-2-----------0-2-2-0-2-2-0-2-2----------|
E|-3--0-0--0-0-0-0-0--3--0-0-0-0-0-0-0-3-0-0---0-0-3-0-0-0-0-0-0-0|

[Riff 2]

E|------------------------------------------------------------|
B|------------------------------------------------------------|
G|-2-2--x---x-2-2--x---x-2-2--x---x-2-2--x---x-2-2--x---x-2-2-|
D|-2-2--x---x-2-2--x---x-2-2--x---x-2-2--x---x-2-2--x---x-2-2-|
A|-0-0--x---x-0-0--x---x-0-0--x---x-0-0--x---x-0-0--x---x-0-0-|
E|------------------------------------------------------------|

E|------------------------------------------------------------|
B|------------------------------------------------------------|
G|-x---x-2-2--x---x-2-2--x---x-2-2--x-------------------------|
D|-x---x-2-2--x---x-2-2--x---x-2-2--x-------------------------|
A|-x---x-0-0--x---x-0-0--x---x-0-0--x-------------------------|
E|------------------------------------------------------------|

[Solo 2]

E|------------------------------------------------------------|
B|------------------------------------------------------------|
G|------------------------------------------------------------|
D|--14\-------------------------------------------------------|
A|----------0-0-3-4-0-0-3-4-0-0-3-4-0-0-3-4-0-0-3-4-0-0-3-4---|
E|------------------------------------------------------------|

E|------------------------------------------------------------|
B|------------------------------------------------------------|
G|------------------------------------------------------------|
D|--------------------------2-2-4-4-5-5-4-4-2-2---------------|
A|-0-0-3-4-0-0-3-4--0-0-4-4---------------------4-4-0-0-4-4---|
E|------------------------------------------------------------|

E|------------------------------------------------------------|
B|------------------------------------------------------------|
G|------------------------------------------------------------|
D|2-2-4-4-5-5-4-4-2-2-------------4-4-6-6-7-7-6-6-4-4---------|
A|--------------------4-4-2-2-6-6---------------------6-6-2-2-|
E|------------------------------------------------------------|

E|--------------------------------9-9--8-------8-------8------|
B|-------------------------------10------10------10------10---|
G|--------------------------------9---------11------11------11|
D|----4-4-6-6-7-7-6-6-4-4-------------------------------------|
A|6-6---------------------6-6---------------------------------|
E|------------------------------------------------------------|

E|-8-------8-------8-------8-------8-------8-------8-----8----|
B|---10------10------10------10------10------10----------10---|
G|------11------11------11------11------11------11---11-------|
D|------------------------------------------------------------|
A|------------------------------------------------------------|
E|------------------------------------------------------------|

E|-12h14p12h14p12h15~-----------------------------------------|
B|------------------------------------------------------------|
G|------------------------------------------------------------|
D|------------------------------------------------------------|
A|------------------------------------------------------------|
E|------------------------------------------------------------|

[Riff 1]

E|-------------------------------------------------------------------|
B|-------------------------------------------------------------------|
G|----------------------------------------------2--------------------|
D|-0--2-2-------------0--2-2--------------0-2-2-2-2-2-0-2-2----------|
A|-0--2-2-------------0--2-2--------------0-2-2-0-2-2-0-2-2----------|
E|-3--0-0--0-0-0-0-0--3--0-0-0-0-0-0-0----3-0-0---0-0-3-0-0-0-0-0-0-0|


[Riff 3]

E|--------------------------------------------------------|
B|--------------------------------------------------------|
G|---------2----------------------------------------------|
D|-2-0-2-2-2-2-2-0-2--------------------------------------|
A|-2-0-2-2-0-2-2-0-2--------------------------------------|
E|-0-3-0-0---0-0-3-0--------------------------------------|

[Riff 2]

E|------------------------------------------------------------|
B|------------------------------------------------------------|
G|-2-2--x---x-2-2--x---x-2-2--x---x-2-2--x---x-2-2--x---x-2-2-|
D|-2-2--x---x-2-2--x---x-2-2--x---x-2-2--x---x-2-2--x---x-2-2-|
A|-0-0--x---x-0-0--x---x-0-0--x---x-0-0--x---x-0-0--x---x-0-0-|
E|------------------------------------------------------------|

E|------------------------------------------------------------|
B|------------------------------------------------------------|
G|-x---x-2-2--x---x-2-2--x---x-2-2--x-------------------------|
D|-x---x-2-2--x---x-2-2--x---x-2-2--x-------------------------|
A|-x---x-0-0--x---x-0-0--x---x-0-0--x-------------------------|
E|------------------------------------------------------------|
Acordes para:
    Composição: Angus Young / Bon Scott / Malcolm YoungColaboração e revisão:
    • Marcos Paulo

    0 comentários

      mostrar mais comentários

      Conseguiu tocar?

      12tocaram1ainda não

      Grave um vídeo tocando Let There Be Rock e mande pra gente!

      00:00 / 00:00
      outros vídeos desta música
      repetirqualidadeAutomático
      Outro vídeos desta música
        00:00 / 00:00
        OK