Cifra Club

Aprenda

Love At First Feel

AC/DC

Cifra: Principal (violão e guitarra)
Tom: G
INTRO/CHORUS
--------------------------------|
---------------3-----------3----|
--2------------0-----------2----|
--2------------0-----------0----|x4
--0-----------------------------|
---------------3----------------|

RIFF
lead
----------------------------|
----------------------------|
----------------------------|
----------------------------|
-0^2---4----2---4-----------|
-0-0---0----0---0-----------|
Rythem                        repeat
----------------------------|
----------------------------|
---9-------------9---9---9--|
---9-------------9---9---9--|
---7-------------7---7---7--|
-0------0---0---------------|


---------------------------|
--------3--3------3----3---|
--0^2---2--4------2----4---|
--0-----0--0------0----0---|
---------------------------|
---------------------------| repeat

to chorus


|---------------------------------------3-----2---
|--2------------------------------------3-----3---
|--2------------------------------------0-----2---
|--2------------------------------------0-----0---
|--0----------------------------------------------
|---------------------------------------3---------
      "feels good just like i knew it would ha ha

SOLO                     
E|---------------------------------------------------------------------------------------------|
B|---------------------------------------------------------------------------------------------|
G|--4^2^0--4^2^0--4^2^0--4^2^0--5^2^0--4^2^0--5^2^0--4^2^0--5^4^0--5^4^0-7^5^0-7^5^0--7^5^0-7^5^0
D|---------------------------------------------------------------------------------------------|
A|---------------------------------------------------------------------------------------------|
E|---------------------------------------------------------------------------------------------|

E|------------------------------------------------------------------------15--------------17---|
B|-5^8^5----8^5---8^5---8^5---8-5^8^5^8^5^8^5^8^5^8^5^8-----15b--15\--15b----15b-15b-\-------17|
G|-------7------7-----7-----7-------------------------0----------------------------------------|
D|---------------------------------------------------------------------------------------------|
A|---------------------------------------------------------------------------------------------|
E|---------------------------------------------------------------------------------------------|
                                                                           trill . . . . . .
E|---------------------------------------------------------------------------------------------|
B|--20b--r-20b--20b~~~~~~~\-15b-15-------14----14-------------------------(10b^9)---(12b^8)-(7^10)
G|---------------------------------12----14-12-14-----12-12-12-12-12-12\-----------------------|
D|----------------------------------------------------12-12-12-12-12-12\-----------------------|
A|------------------------------------0------------14------------------------------------------|
E|---------------------------------------------------------------------------------------------|

E|----------------15b--r-b-15b-r-15b-r--15b-r--15b--t-15b~~~~~~~~-15\--15b---15b--\--15b-\--15b|
B|-8^5-----------------------------------------------------------------------------------------|
G|-----7/--------------------------------------------------------------------------------------|
D|---------------------------------------------------------------------------------------------|
A|---------0--0------0----0-------0---------0-----0----------0------0-------0-------0------0---|
E|---------------------------------------------------------------------------------------------|
 ryhtem                      lead 
E|------3--------2------| |---15b--r--15b--r-------||
B|------3--------3------| |------------------------||
G|------0--------2----2-| |---------------------2--||
D|------0--------0----2-| |---------------------2--||
A|--0--------0--------0-| |------0----0---------0--||
E|------3---------------| |------------------------||
Composição de Angus Young / Bon Scott / Malcolm Young
3.242 exibições
    • ½ Tom
    • A
    • Bb
    • B
    • C
    • Db
    • D
    • Eb
    • E
    • F
    • F#
    • G
    • Ab
  • Adicionar à lista

    0 comentários

    Mostrar mais comentários

    Conseguiu tocar?

    1 Tocaram 0 Ainda não

    Grave um vídeo tocando Love At First Feel e mande pra gente!

    00:00 / 00:00
    outros vídeos desta música
    repetir qualidade Automático
    Outros vídeos desta música
    00:00 / 00:00
    Automático
    OK