Cifra Club

Aprenda

Mistress for Christmas

AC/DC

Cifra: Principal (violão e guitarra)
Tom: G
 Intro + verse:
E|--------------------|--------------------|--------------------|
B|--3-----------------|--3-----------------|---------3----------|
G|--2------2----------|--2------2----------|--0------2----------|
D|--0------2----------|--0------2----------|--0------0----------|
A|---------0----------|---------0----------|--------------------|
E|--------------------|--------------------|--3-----------------|

|--------------------|--------------------|--------------------|
|--3-----------------|--3-----------------|--3-----------------|
|--2------2----------|--2------2----------|--2------2----------|
|--0------2----------|--0------2----------|--0------2----------|
|---------0----------|---------0----------|---------0----------|
|--------------------|--------------------|--------------------|

|--------------------|--------------------|
|---------3----------|--3-----------------|
|--0------2----------|--2------2----------|
|--0------0----------|--0------2----------|
|--------------------|---------0----------|
|--3-----------------|--------------------|

after 1st verse:
|--------------------|--------------------|----------------------|
|---------3----------|--3-----------------|---------3----1-------|
|--0------2----------|--2------2----------|--0------2----0----0--|
|--0------0----------|--0------2----------|--0------0----2----0--|
|--------------------|---------0----------|--------------3-------|
|--3-----------------|--------------------|--3----------------3--|

|-------------------|--------------------|--------------------|
|-------------------|---------3----------|--3-----------------|
|--2----------------|--0------2----------|--2------2----------|
|--2----------------|--0------0----------|--0------2----------|
|--0----------------|--------------------|---------0----------|
|-------------------|--3-----------------|--------------------|
                                  to verse:
|--------------------|-------------------|
|---------3----------|-------------------|
|--0------2----------|--2----------------|
|--0------0----------|--2----------------|
|--------------------|--0----------------|
|--3-----------------|-------------------|

After 2nd verse:
           He got it             I want it
|--------------------|--------------------|
|--3-----------------|---------3----------|
|--2------2----------|--0------2----------|
|--0------2----------|--0------0----------|
|---------0----------|--------------------|
|--------------------|--3-----------------|
           they got it         I can't have it       but I want it
|--------------------|--------------------|--------------------|
|--3-----------------|---------3----------|--3-----------------|
|--2------2----------|--0------2----------|--2------2----------|
|--0------2----------|--0------0----------|--0------2----------|
|---------0----------|--------------------|---------0----------|
|--------------------|--3-----------------|--------------------|
          but it don't matter   she got it          and I can't get it
|--------------------|--------------------|--------------------|
|---------3----------|--3-----------------|---------3----------|
|--0------2----------|--2------2----------|--0------2----------|
|--0------0----------|--0------2----------|--0------0----------|
|--------------------|---------0----------|--------------------|
|--3-----------------|--------------------|--3-----------------|
                                     I want a
|-----------------------|---------------------|
|------------3--3-------|-------3--3----------|
|----0--0----2--2----0--|--0----2--2----------|
|----0--0----0--0----0--|--0----0--0----------|
|-----------------------|---------------------|
|----3--3------------3--|--3------------------|

  mistress....
|--------------------|--------------------|--------------------|
|--3-----------------|--3-----------------|---------3----------|
|--2------2----------|--2------2----------|--0------2----------|
|--0------2----------|--0------2----------|--0------0----------|
|---------0----------|---------0----------|--------------------|
|--------------------|--------------------|--3-----------------|
                      mistress...
|--------------------|--------------------|--------------------|
|--3-----------------|--3-----------------|--3-----------------|
|--2------2----------|--2------2----------|--2------2----------|
|--0------2----------|--0------2----------|--0------2----------|
|---------0----------|---------0----------|---------0----------|
|--------------------|--------------------|--------------------|

|--------------------|--------------------|
|---------3----------|--3-----------------|
|--0------2----------|--2------2----------|
|--0------0----------|--0------2----------|
|--------------------|---------0----------|
|--3-----------------|--------------------|

chord change:
|--------------------|--------------------|--------------------|
|--------------------|--------------------|--------------------|
|---------4----------|--2-----------------|---------4----------|
|--2------4----------|--2------2----------|--2------4----------|
|--2------2----------|--0------2----------|--2------2----------|
|--0-----------------|---------0----------|--0-----------------|

          I want a    mistress                         for
|--------------------|--------------------|--------------------|
|--------------------|--------------------|--------------------|
|--2-----------------|---------4----------|--2-----------------|
|--2------2----------|--2------4----------|--2------2----------|
|--0------2----------|--2------2----------|--0------2----------|
|---------0----------|--0-----------------|---------0----------|
 christmas
|--------------------|--------------------|-------------------|
|--------------------|--------------------|-------------------|
|---------4----------|--2-----------------|--4----------------|
|--2------4----------|--2------2----------|--4----------------|
|--2------2----------|--0------2----------|--2----------------|
|--0-----------------|---------0----------|-------------------|

|--------------------|-------------------|--------------------|
|--------------------|-------------------|--------------------|
|--2-----------------|--4----------------|--2-----------------|
|--2--------2--------|--4----------------|--2--------2--------|
|--0--------2--------|--2----------------|--0--------2--------|
|-----------0--------|-------------------|-----------0--------|

|-------------------|--------------------|-------------------|
|-------------------|--------------------|-------------------|
|--4----------------|--2-----------------|--4----------------|
|--4----------------|--2--------2--------|--4----------------|
|--2----------------|--0--------2--------|--2----------------|
|-------------------|-----------0--------|-------------------|

|--------------------|
|--------------------|
|--2-----------------|
|--2--------2--------|
|--0--------2--------|
|-----------0--------|

 easy come             easy go
|--------------------|--------------------|
|---------3----------|--3-----------------|
|--0------2----------|--2------2----------|
|--0------0----------|--0------2----------|
|--------------------|---------0----------|
|--3-----------------|--------------------|

|--------------------|-------------------|
|---------3----------|-------------------|
|--0------2----------|--2----------------|
|--0------0----------|--2----------------|
|--------------------|--0----------------|
|--3-----------------|-------------------|
  slippin' high        slippin' low
|--------------------|--------------------|--------------------|
|---------3----------|--3-----------------|---------3----------|
|--0------2----------|--2------2----------|--0------2----------|
|--0------0----------|--0------2----------|--0------0----------|
|--------------------|---------0----------|--------------------|
|--3-----------------|--------------------|--3-----------------|
                                                    go on until chorus:
|-------------------|--------------------|--------------------|
|-------------------|--3-----------------|---------3----------|
|--2----------------|--2------2----------|--0------2----------|
|--2----------------|--0------2----------|--0------0----------|
|--0----------------|---------0----------|--------------------|
|-------------------|--------------------|--3-----------------|
Composição de Angus Young / Malcolm Young
3.021 exibições
    • ½ Tom
    • A
    • Bb
    • B
    • C
    • Db
    • D
    • Eb
    • E
    • F
    • F#
    • G
    • Ab
  • Adicionar à lista

    0 comentários

    Mostrar mais comentários

    Conseguiu tocar?

    0 Tocaram 0 Ainda não

    Grave um vídeo tocando Mistress for Christmas e mande pra gente!

    00:00 / 00:00
    outros vídeos desta música
    repetir qualidade Automático
    Outros vídeos desta música
    00:00 / 00:00
    Automático
    OK