Cifra Club

Aprenda

Riff Raff

AC/DC

Cifra: Versão 2 (violão e guitarra)
Tom: A
h = hammer on
p = pull off
s = slide
b = bend
r = release bend
v = vibrato
( ) = nota deve soar mas nao deve ser palhetada
x = corda abafada

Como tocar a música:

1.Introdução:
Riff 1 [5x]
Riff 2 [8x]
Riff 3 [1x]
Riff 2*[2x]
Riff 3 [1x]
Riff 4 [1x]
Riff 2*[4x]

2.Verso:
Riff 5 [aumentando a velocidade]
Riff 5*[na última vez]

3.Refrão:
Riff 3*[1x]
Riff 2*[1x]
Riff 2 [1x]
Riff 3 [1x]
Riff 4 [1x]

4.Solo (você pode improvisar na pentatônica de Lá Menor)
obs.: no meio do solo Angus toca o Riff 4 (2x) 2 vezes
      e depois o Riff 1.

5.Verso

6.Refrão

7.Final:
Riff 2*[1x]
Riff 2 [1x]
Riff 1 [1x] (para tocar como ele faz basta abafar a corda 5ª corda ao tocá-la)


Riff 1:

E------------------------------------------------------------------
B------------------------------------------------------------------
G-----7--7--7--7--7--7--------7--7--7--7--7------2-----------------   
D-----4--5--4--5--4--5--------4--5--4--5--4------2-----------------
A---00-00-00-00-00-00-------00-00-00-00-00-----000-----------------
E------------------------------------------------------------------


Riff 2:

E------------------------------------------------------------------
B------------------------------------------------------------------
G---2-2-2----------------------------------------------------------
D---2-2-2-------2-4-----5------------------------------------------
A---0-0-0-0-3-4-----3p0---3p0--------------------------------------
E------------------------------------------------------------------

Riff 2*:

E------------------------------------------------------------------
B------------------------------------------------------------------
G------------------------------------------------------------------
D------------2-4-----5---------------------------------------------
A------0-3-4-----3p0---3p0-----------------------------------------
E------------------------------------------------------------------


Riff 3:

E----------2--3--2------2--3--2--3--2------------------------------
B----------3--3--3------3--3--3--3--3------------------------------
G---2-2-2--2--0--2------2--0--2--0--2--2---------------------------
D---2-2-2--0--0--0------0--0--0--0--0--2---------------------------
A---0-0-0-----x------------x-----x-----0---------------------------
E-------------3------------3-----3---------------------------------

Riff 3*:

E----------2--3--2------2--3--2--3--2------------------------------
B----------3--3--3------3--3--3--3--3------------------------------
G----------2--0--2------2--0--2--0--2--2---------------------------
D----------0--0--0------0--0--0--0--0--2---------------------------
A-------------x------------x-----x-----0---------------------------
E-------------3------------3-----3---------------------------------


Riff 4:

E------------------------------------------------------------------
B------------------------------------------------------------------
G------------------------------------------------------------------
D---------------------------5-6-----------------------------5-6----
A---4-5p0-4-5p0-4-5p0-4-5p0---------4-5p0-4-5p0-4-5p0-4-5p0-----0--
E-------------------------------5----------------------------------


Riff 5:

E------------------------------------------------------------------
B-----------7b8r7v-------------------------------------------------
G---0h2-----7b8r7v-------------------------------------------------
D---0h2------------------------------------------------------------
A---0--------------------------------------------------------------
E------------------------------------------------------------------

Riff 5*:

E------------------------------------------------------------------
B-----------7b8r7v-------------------------------------------------
G-----------7b8r7v---0h2-----2-------------------------------------
D--------------------0h2-----2-------------------------------------
A--------------------0----3--0-------------------------------------
E------------------------------------------------------------------
Composição de Angus Young / Bon Scott / Malcolm Young
Colaboração e revisão:
  • Iuri Gama
720 exibições
    • ½ Tom
    • A
    • Bb
    • B
    • C
    • Db
    • D
    • Eb
    • E
    • F
    • F#
    • G
    • Ab
  • Adicionar à lista

    0 comentários

    Mostrar mais comentários

    Conseguiu tocar?

    1 Tocaram 0 Ainda não

    Grave um vídeo tocando Riff Raff e mande pra gente!

    00:00 / 00:00
    outros vídeos desta música
    repetir qualidade Automático
    Outros vídeos desta música
    00:00 / 00:00
    Automático
    OK