Cifra Club

Rock 'n Roll Dream

AC/DC

Cifra: Original (violão e guitarra)
Tom: G
(intro)

0:00
E|-------------|----------|-------------|--------|
B|-----6---6---|---6--6---|-----6---6---|-6------|
G|---3-3-3-5---|-3-3--5---|---3---3-5---|-5-3-5--|
D|-3-3---3-3---|-3----3---|-3-----3-3---|-3-3-3--|
A|-------------|----------|-------------|--------|
E|-------------|----------|-------------|--------|

(verse)
0:19
E|-----1-----1-1-1--1-1-1-|
B|---------------1--1-1-1-|
G|-1-3-------3-3----------|
D|---------3-----3--3-1-3-|x3
A|-------(1:--------------|
E|------(1:---------------|

0:33
E|-1--------------|
B|-------------6--|
D|-3--3--------5--|
G|-0--1--------3--|
A|-----------6----|
E|-------4-6------|

0:42
E|-----1-----1-1-1--1-1-1-|
B|---------------1--1-1-1-|
G|-1-3-------3-3----------|
D|---------3-----3--3-1-3-|x3
A|-------(1:--------------|
E|------(1:---------------|

00:56                  1:10
E|-1---1-----------|   |-----1---|
B|--------------6--|   |---------|
D|-3---3--------5--|   |---3-----|
G|-0---1--------3--|x3 |-3-------|
A|------------6----|   |---------|
E|--------4-6------|   |---------|

(chorus)
1:12               1:34
E|-------------|   |-1--|
B|---------4---|   |-x--|
G|---3-----3---|   |-x--|
D|-3-3---6-1---|x5 |-3--|
A|-3-1---6-----|   |-3--|
E|-1-----4-----|   |-1--|

(verse)
1:39
E|-----1-----1-1-1--1-1-1-|
B|---------------1--1-1-1-|
G|-1-3-------3-3----------|
D|---------3-----3--3-1-3-|x3
A|-------(1:--------------|
E|------(1:---------------|

(during the verse Angus plays some riffs)
1:42
E|----------6---------------|----------------------------|
B|--------------------------|-6~~~p4h6p4h6p4h6p4h6p4h6\--|
G|--------------------------|----------------------------|
D|-8~p6-8~~\----------------|----------------------------|
A|-------------6b7-8-8*~~\--|----------------------------|
E|--------------------------|----------------------------|
                              ^This is actually a vibrato^

E|-------------------------|----------------|--------------|
B|-11p10b12----------------|----------------|-11b12-9------|
G|----------8b9-10-10~~~\--|-5/8-10-10~~p8\-|---------10~\-|
D|-------------------------|----------------|--------------|
A|-------------------------|----------------|--------------|
E|-------------------------|----------------|--------------|

E|-------------------|---------------|-------------------|
B|------10b12r10~~\--|---------------|-12b13r12----------|
G|-8-10--------------|-8-10-12r10~~\-|-12b13r12p10~~~~~--|
D|-------------------|---------------|-------------------|
A|-------------------|---------------|-------------------|
E|-------------------|---------------|-------------------|
2:22
E|-------1~~-|
B|-----1-----|
G|-1-3-------|Angus
D|-----------|
A|-----------|
E|-----------|
             |
             |
E|-----------|
B|-----------|
G|-----------|Malcolm
D|-------3---|
A|-----6-----|
E|-4-6-------|

(chorus)
2:24
E|--------------------------------------|---------------|
B|----------------------------4---------|-----------4---|
G|----------3-----------------3---------|----3------3---|
D|-3--------3-------6---------1---------|-3--3---6--1---|
A|-3--------1-------6-------------------|-3--1---6------|
E|-1----------------4-------------------|-1------4------|
 |                                                      |
 |                                                      |x4
E|--------------------------------------|---------------|
B|----------------------4---------------|---------------|
G|------------------1/5~~~5p3\1-3-1-----|---------------|
D|----------------------------------3-1-|---------------|
A|--------------------------------------|---------------|
E|--------------------------------------|---------------|
\                                                       /
3:00
E|-1-------|
B|-1-------|
G|---------|
D|-3-------|
A|-3-------|
E|-1-------|

(Ok, this is probably the hardest part to play and figure out in the song.
So, take time in getting in right, cause it is really noisy in this part.
It's so hard to focus and figure out with guitar is which, but I'll tab it
the best I can)

3:09
E|-----1-----1-1-1--1-1-1-|
B|---------------1--1-1-1-|
G|-1-3-------3-3----------|
D|---------3-----3--3-1-3-|
A|-------(1:--------------|
E|------(1:---------------|

3:13
E|-----1---------1-----1-----1-|
B|---1-----1---1-----1-----1---|
G|-----------------------------|
D|-3-----1---0-----------1-----|x3
A|-----------------4-----------|
E|-----------------------------|

3:18
E|-------------------------------|
B|-------------------------------|
G|---------------10---8-7-6--8---|This part starts on the second time
D|-3---1-0----1------------------|through of the bar above.
A|---------4---------------------|
E|-------------------------------|

3:27
E|---------------------------------------------------|
B|------6-6------6-6------6------6-6------6-6------6-|
G|-8b10-----8b10-----8b10---8b10-----8b10-----8b10---|
D|---------------------------------------------------|x2
A|---------------------------------------------------|
E|---------------------------------------------------|

3:35
E|---------------------------------------------|
B|-9-6------6-6------6-6-9-6------6-6------6-6-|
G|-----8b10-----8b10---------8b10-----8b10-----|
D|---------------------------------------------|
A|---------------------------------------------|
E|---------------------------------------------|

3:40
E|-6/8-8-8-8--11-11-11-11-11-12b13-12b13-12b3-12b13~~~\-|
B|------------------------------------------------------|
G|------------------------------------------------------|
D|------------------------------------------------------|
A|-------\m/(^_^:\m/------------------------------------|
E|------------------------------------------------------|

3:44
E|--------------------------------------|-------------------|
B|----------------------------4---------|-----------4-------|
G|----------3-----------------3---------|----3------3-------|
D|-3--------3-------6---------1---------|-3--3---6--1-------|
A|-3--------1-------6-------------------|-3--1---6----------|
E|-1----------------4-------------------|-1------4----------|
 |                                                          |
 |                                                          |x2
E|--------------------------------------|-------------------|
B|----------------------4---------------|-------------------|
G|------------------1/5~~~5p3\1-3-1-----|-------------------|
D|----------------------------------3-1-|-------------------|
A|--------------------------------------|-------------------|
E|--------------------------------------|-------------------|
\                                                           /
4:02
/                                                           \
E|--------------------------------------|-------------------|
B|----------------------------4---------|-----------4-------|
G|----------3-----------------3---------|----3------3-------|
D|-3--------3-------6---------1-x\\\\---|-3--3---6--1-x\\\\-|
A|-3--------1-------6-----------x\\\\---|-3--1---6----x\\\\-|
E|-1----------------4-----------x\\\\---|-1------4----x\\\\-|
 |                                                          |
 |                                                          |x2
E|--------------------------------------|-------------------|
B|----------------------4---------------|-------------------|
G|------------------1/5~~~5p3\1-3-1-----|-------------------|
D|----------------------------------3-1-|-------------------|
A|--------------------------------------|-------------------|
E|--------------------------------------|-------------------|
\                                                           /
4:20
/                                                           \
E|--------------------------------------|-1-----------------|
B|----------------------------4---------|-------------------|
G|----------3-----------------3---------|-------------------|
D|-3--------3-------6---------1-x\\\\---|-3-----------------|
A|-3--------1-------6-----------x\\\\---|-3-----------------|
E|-1----------------4-----------x\\\\---|-1-----------------|
 |                                                          |
 |                                                          |
E|--------------------------------------|-------------------|
B|----------------------4---------------|-------------------|
G|------------------1/5~~~5p3\1-3-1-----|-------------------|
D|----------------------------------3-1-|-3-----------------|
A|--------------------------------------|-3-----------------|
E|--------------------------------------|-1-----------------|
\                                                           /
4:33
And then fading out (If you turn it up loud:
E|-----1-----1-1-1--1-1-1-|
B|---------------1--1-1-1-|
G|-1-3-------3-3----------|
D|---------3-----3--3-1-3-|
A|-------(1:--------------|
E|------(1:---------------|
exibições 531
Acordes para:
    Composição: Angus Young / Malcolm Young Colaboração e revisão:
    • Lucas Alves

    0 comentários

    mostrar mais comentários

    Conseguiu tocar?

    0 tocaram 0 ainda não

    Grave um vídeo tocando Rock 'n Roll Dream e mande pra gente!

    00:00 / 00:00
    outros vídeos desta música
    repetir qualidade Automático
    Outros vídeos desta música
    00:00 / 00:00
    Automático
    OK