Cifra Club

Aprenda

Rock Your Heart Out

AC/DC

Cifra: Principal (violão e guitarra)
Tom: G
INTRO:

   A5  G5  D  A5 G5 D
e|----------2-|------2--|
b|----------3-|------3--|
g|.-2-2-----2-|-2----2-.| 12x
d|.-2-2--0--0-|-2--0-0-.|
a|--0-0--0----|-0--0----|
E|------(3)---|---(3)---|

Pausa.

INTRO 4x

REFRÃO:

   D   C5 G5 C5 G5 C5
|--2-2------|--------|
|--3-3--3-3-|-3-3-3--|
|--2-2--0-0-|-0-0-0--|  4x
|--0-0--0-0-|-0-0-0--|
|-------3-x-|-3-x-3--|
|---------3-|---3----|

Pausa.

INTRO 4x

REFRÃO 4x

Solo:
|--------------------------------------------------------------------------|
|----15b-r^13-15b-------15b--15b--15b--15b----~~~~~~~~~~~~----10\--8b------|
|-----------------------------------------------------------7-----5~~~\--5-|
|----------------------------------------------------------7---------------|
|--------------------------------------------------------------------------|
|--------------------------------------------------------------------------|

|------------------------------------------------------------8b-----8-5----|
|---------------------------------------------------------------------8^5--|
|--------------5---7---7-~~~-5---7---5--7--4--5--2--4----5^7b---7b--------7|
|--7^5^7~~~~~~-----------------7------------------5b-r-^5------------------|
|--------------------------------------------------------------------------|
|--------------------------------------------------------------------------|

|-------------------------------------------8---8---8-8~~~~~----8-2--------|
|-5-------------------------------8--10---7---7-7------x-7-1--15b-15b-15b--|
|---7-5---7---7-5-5---7~~~~~-5--8---7--9~~~~--9---9------------------------|
|-------7---7--------------------------------------------------------------|
|--------------------------------------------------------------------------|
|--------------------------------------------------------------------------|
                                 
|---15--15--15--15--15-\3/17-------17------17------------------------------|
|-15b15-15b15-15b15-15b\3/17-20b----20b-----20b~~~~~~~-8^5----5---5--------|
|-------------------------------------------------------7^8---7----5--5^7~~|
|--------------------------------------------------------------------------|
|--------------------------------------------------------------------------|
|--------------------------------------------------------------------------|


|--15b-15b-15b-\-----------------------------------------------------------|
|----------------15b--15--13--12-------------------------------------------|
|--------------------------------14--12------------------------------------|
|--------------------------------------------------------------------------|
|--------------------------------------------------------------------------|
|--------------------------------------------------------------------------|
   
|------5-------------------------------------------------------------------|
|----5---8^5-8^5---5-------------------------------------------15---17-----|
|----------------8---8^7^5-----------------------------------------------2-|
|--------------------------7-5-------------------------------------------2-|
|------------------------------7-6-5\3b-3b^3-----------------------------0-|
|--------------------------------------------5^3---------------------------|

INTRO 8x

OBS: Angus e Malcom tocam a intro e refrão alternadamente, e as vezes simultaneamente, dando 
um efeito diferente no riff. Ouçam a musica para pega-lá melhor. Abraços!!!
Composição de Angus Young / Malcolm Young
Colaboração e revisão:
  • Fabio Couto
3.953 exibições
    • ½ Tom
    • A
    • Bb
    • B
    • C
    • Db
    • D
    • Eb
    • E
    • F
    • F#
    • G
    • Ab
  • Adicionar à lista

    0 comentários

    Mostrar mais comentários

    Conseguiu tocar?

    0 Tocaram 0 Ainda não

    Grave um vídeo tocando Rock Your Heart Out e mande pra gente!

    00:00 / 00:00
    outros vídeos desta música
    repetir qualidade Automático
    Outros vídeos desta música
    00:00 / 00:00
    Automático
    OK