Cifra Club

Aprenda

Shake A Leg

AC/DC

Tab de baixo: Principal
Intro
G:-------------------|----------------------|
D:-------------------|----------------------|
A:-------------------|----------------------|
E:---0--5-0--0--5-0--|--0--5-0----0--50-50--|

G:--------------|--------------------|
D:--------------|--------------------|
A:--------------|--------------------|
E:---0--50-50---|---050---050---050--|

G:-----------------------------------|
D:-----------------------------------|
A:------022-044-055-----022-044-055--|
E:--050-------------050--------------|

G:-----------------------------------|
D:-----------------------------------|
A:------022-044-055-----022-044-055--|
E:--050-------------050--------------|




Main Riff

G:----------------------------------------------|
D:----------------------------------------------|
A:-----------022-044-055-----------022-044-055--|
E:--0----050--------------0----050--------------|

G:------------------------|
D:------------022-044-055-|
A:--0----050--------------|
E:------------------------|

G:-----------------------|
D:-----------------------|
A:-----------022-044-055-|
E:--0----050-------------|




Refrão

G:----------------|----------------|----------------|
D:---2-2----2-2-4-|---2-2----2-2---|---2-2----2-2---|
A:-------2--------|-------2------2-|-------2------2-|
E:----------------|----------------|----------------|

G:---------------------|
D:---2-2---2---2-2---2-|
A:-------2---------2---|
E:---------------------|




Na parte do solo de guitarra

G:---------------------------|---------------------------|
D:---------------------------|---------------------------|
A:---55-0--55-0--55-0---3--5-|---55-0--55-0--55-0---3--5-|
E:---------------------------|---------------------------|

G:---------------------------|---------------------------|
D:---------------------------|---------------------------|
A:---55-0--55-0--55-0---3--5-|---55-0--55-0--55-0---3--5-|
E:---------------------------|---------------------------|

G:--------------------------------------|
D:---2-2----2--4---2-2----2--4--2-2---2-|
A:-------2-------------2------------2---|
E:--------------------------------------|

G:------------------------|
D:---4--2-2---2---2-2---2-|
A:----------2---------2---|
E:------------------------|

Main Riff

G:----------------------------------------------|
D:----------------------------------------------|
A:-----------022-044-055-----------022-044-055--|
E:--0----050--------------0----050--------------|

G:------------------------|
D:------------022-044-055-|
A:--0----050--------------|
E:------------------------|

G:-----------------------|
D:-----------------------|
A:-----------022-044-055-|
E:--0----050-------------|

Refrão

G:----------------|----------------|----------------|
D:---2-2----2-2-4-|---2-2----2-2---|---2-2----2-2---|
A:-------2--------|-------2------2-|-------2------2-|
E:----------------|----------------|----------------|

G:---------------------|
D:---2-2---2---2-2---2-|
A:-------2---------2---|
E:---------------------|

_______________________________________________________
Contribuição: Guilherme Burzynski Dienes(int0thev0id@hotmail.com)
Composição de Angus Young / Brian Johnson / Malcolm Young
1.656 exibições

0 comentários

Mostrar mais comentários

Conseguiu tocar?

0 Tocaram 0 Ainda não

Grave um vídeo tocando Shake A Leg e mande pra gente!

00:00 / 00:00
outros vídeos desta música
repetir qualidade Automático
Outros vídeos desta música
00:00 / 00:00
Automático
OK