Cifra Club

Show Business

AC/DC

Cifra: Principal
exibições 6.826
Tom: E
    E                 A                   E                  
E|--------------------|-------------------|-------------------|-------------------|                     
B|--------------------|-------------------|-------------------|-------------------|                    
G|--------------------|--0^2--2-----2-----|-------------------|-------------------|                     
D|--x--2--2-----2-----|--0^2--2--4--2--4--|--0^2--2-----2-----|--0^2--2-----2-----|                       
A|--x--2--2--4--2--4--|--0-0--0--0--0--0--|--0^2--2--4--2--4--|--0^2--2--4--2--4--|                      
E|--x--0--0--0--0--0--|-------------------|--0-0--0--0--0--0--|--0-0--0--0--0--0--|

         A                                    E                  
E|--------------------|-------------------|-------------------|-------------------|                     
B|--------------------|-------------------|-------------------|-------------------|                    
G|--0^2--2-----2------|--0^2--2-----2-----|-------------------|-------------------|                     
D|--0^2--2--4--2--4---|--0^2--2--4--2--4--|--0^2--2-----2-----|--0^2--2-----------|                       
A|--0-0--0--0--0--0---|--0-0--0--0--0--0--|--0^2--2--4--2--4--|--0^2--2--4--2--4--|                      
E|--------------------|-------------------|--0-0--0--0--0--0--|--0-0--0--0--0--0--|

    F#                        A                                   
E|---------------------|-------------------|-----------5--4--3-|-2-1--------------|                     
B|---------------------|-------------------|-----------4--3--2-|-1-0--------------|                    
G|---------------------|------2------------|-----------5--4--3-|-2-1--------------|                     
D|--4------------------|------2------------|-------------------|------------------|                       
A|--4------------------|------0------------|--------2----------|----0--2--3-------|                      
E|--2------------------|-------------------|--0--3--0----------|------------------|


VERSE
        E|-------------|-------------------|-----------|-------------------|-------------|
        B|-------------|-------------------|--3--------|-------------------|-------------|        
        G|-----2-------|-------------------|--0--------|-------------------|-----2-------|        
        D|--2--2----2--|-------------------|--0---2----|-------------------|--2--2----2--|        
        A|--2--0----2--|-------------------|------2----|-------------------|--2--0----2--|        
        E|--0----3--0--|-------------------|--3---0----|-------------------|--0----3--0--|        
                        "you learn to sing"             "you learn to play"
        E|---------------------------------------------------------|                      
        B|-------------------------------8-8-8-8-8-8-8-8-8-8-8-----|                              
        G|-------------------------------7-7-7-7-7-7-7-7-7-7-7-----|                              
        D|-------------------------------6-6-6-6-6-6-6-6-6-6-6-----|                              
        A|-------------------------------7-7-7-7-7-7-7-7-7-7-7-----|                              
        E|-------------------------------0-0-0-0-0-0-0-0-0-0-0-----|                              
            "why dont the buisness man ever learn to play"                

Chorus

E|------------------------------------|--------------------------------------------|
B|------------------------------------|--------------------------------------------|
G|--0^2-2-----2------0^2--2-----------|--------------------------------------------|
D|--0^2-2--4--2--4---0^2--2--4--2--4--|---0^2--2-----2-----2---0^2--2-----2--------|
A|--0---0--0--0--0---0----0--0--0--0--|---0^2--2--4--2--4--2---0^2--2--4--2--4-----|
E|------------------------------------|---0----0--0--0--0--0---0----0--0--0--0--0--|

E-------------------------------------|-------------------------|     
B-------------------------------------|-------------------------|     
G----------------2---2--2-------------|-------------------------|       
D---4---4--4--4--2---2--2-----2-------|-------------------------|       
A---4---4--4--4--0---0--0-----2-------|------------------0-2-3--|        
E---2---2--2--2------------3--0-------|--0--1--2--3--4----------|     


bit before solo
E|----------------------------------|                        
B|----------------------------------|                         
G|----------------------------------|                        
D|----------------------------------|                         
A|----------------------------------|                        
E|--2--0--2--4--5---6--7--0--3--0---|    

Ending
E|-------------------------------------------------------------|
B|----------------------------10----9--------------------------|
G|----------------------------10----9-------------------9-/----|
D|----------------------------8-----7-------------------9-/----|
A|----------------------------8-----7-------------------7-/----|
E|--0--0--3--3--5--5--6-6--7------------0-0-0-0-0-0-0-0--------|                        
Acordes para:

    0 comentários

      mostrar mais comentários

      Conseguiu tocar?

      0tocaram0ainda não

      Grave um vídeo tocando Show Business e mande pra gente!

      00:00 / 00:00
      outros vídeos desta música
      repetirqualidadeautomática
      Outro vídeos desta música
        00:00 / 00:00
        automática
        OK