Cifra Club

Aprenda

Stormy May Day

AC/DC

Cifra: Principal (violão e guitarra)
Tom: F
Intro:

E|-------3-------1-------1--3------1--3------1--3------3----------------|
B|-----3-------3-------3--1------3--1------3--1--------3----------------|
G|---0-------0-------0--0------0--0------0--0----------0-----------0----|
D|-----------------------------------------------------------------0----|
A|----------------------------------------------------------------------|
E|----------------------------------------------------------------------|

Riff 5x
E|----------------------------------|-----------------------------------------|
B|----------------------------------|-----------------------------------------|
G|--0-3-0-3-0-3-0-5~--5/3p0--3/2p0--|---0--3/2p0--3/2p0-5~--5/3p0-3-3-3-0~----|
D|--0-3-0-3-0-3-0-5~--5/3p0--3/2p0--|---0--3/2p0--3/2p0-5~--5/3p0-3-3-3-0~----|
A|----------------------------------|-----------------------------------------|
E|----------------------------------|-----------------------------------------|

Refrão
E|------------------|-----------------------8-|
B|------------------|-----------------------8-|
G|---10-5~--10-8~---|---10-5~--3h0----10~-----|
D|---10-5~--10-7~---|---10-5~--3h0----10~-----|
A|------------------|-------------------------|
E|------------------|-------------------------|

4x:
E|----------------------------------|-----------------------------------------|
B|----------------------------------|-----------------------------------------|
G|--0-3h0-3h0-3h0-3h0-5~--3-0-3h2~--|---0--3h2-0-3h2-0-3-0-5--3-0-3-3-3-0~----|
D|--0-3h0-3h0-3h0-3h0-5~--3-0-3h2~--|---0--3h2-0-3h2-0-3-0-5--3-0-3-3-3-0~----|
A|----------------------------------|-----------------------------------------|
E|----------------------------------|-----------------------------------------|

E|----------------------------------|-----------------------------------------|
B|----------------------------------|-----------------------------------------|
G|--0-3h0-3h0-3h0-3h0-5~--3-0-3h2~--|---0--3h2-0-3h2-0-3-0-5--3-0-3-3-3-0~----|
D|--0-3h0-3h0-3h0-3h0-5~--3-0-3h2~--|---0--3h2-0-3h2-0-3-0-5--3-0-3-3-3-0~----|
A|----------------------------------|-----------------------------------------|
E|----------------------------------|-----------------------------------------|

E|----------------------------------|-----------------------------------------|
B|----------------------------------|-----------------------------------------|
G|--0-3h0-3h0-3h0-3h0-5~--3-0-3h2~--|---0--3h2-0-3h2-0-3-0-5--3-0-3-3-3-0~----|
D|--0-3h0-3h0-3h0-3h0-5~--3-0-3h2~--|---0--3h2-0-3h2-0-3-0-5--3-0-3-3-3-0~----|
A|----------------------------------|-----------------------------------------|
E|----------------------------------|-----------------------------------------|

E|----------------------------------|-----------------------------------------|
B|----------------------------------|-----------------------------------------|
G|--0-3h0-3h0-3h0-3h0-5~--3-0-3h2~--|---0--3h2-0-3h2-0-3-0-5--3-0-3-3-3-0~----|
D|--0-3h0-3h0-3h0-3h0-5~--3-0-3h2~--|---0--3h2-0-3h2-0-3-0-5--3-0-3-3-3-0~----|
A|----------------------------------|-----------------------------------------|
E|----------------------------------|-----------------------------------------|

Intro
E|--3------------|
B|--3------------|
G|--0--5--3--0---|
D|--0--5--3--0---|
A|-----3--1--x---|
E|-----------3---|

E|---------------|
B|---------------|
G|--5--5--3--0---|
D|--3--5--3--0---|
A|-----3--1--x---|
E|-----------3---|
Composição de Angus Young / Malcolm Young
Colaboração e revisão:
  • Luiz Barni
  • roodrigo
  • Élison Duarte
10.397 exibições
    • ½ Tom
    • A
    • Bb
    • B
    • C
    • Db
    • D
    • Eb
    • E
    • F
    • F#
    • G
    • Ab
  • Adicionar à lista

    0 comentários

    Mostrar mais comentários

    Conseguiu tocar?

    5 Tocaram 0 Ainda não

    Grave um vídeo tocando Stormy May Day e mande pra gente!

    00:00 / 00:00
    outros vídeos desta música
    repetir qualidade Automático
    Outros vídeos desta música
    00:00 / 00:00
    Automático
    OK