Cifra Club

Aprenda

The Jack

AC/DC

Tab de baixo: Principal
Introdução

Parte 01 ( Tocar 3x )

G|--------------------------------------------|
D|--------------------------------------------|
A|--------------------------------------------|
E|-7-7--7-7--7-7--7-7--5-5--5-5--5-5--5-5-----|

Parte 02

G|--------------------------------------------|
D|--------------------------------------------|
A|--------------------------------------------|
E|-0-0--0-0--0-0--0--5-6-7--------------------|

G|--------------------------------------------|
D|--------------------------------------------|
A|--------------------------------------------|
E|-7-7-7--7-7-7--7-7-7--7-7-7--7/12\----------|

Primeira parte

She gave me the Queen...

Parte 01

G|--------------------------------------------|
D|--------------------------------------------|
A|--------------------------------------------|
E|-0-0-0-0--0-0-0-0--0-0-0-0--0-0-0-0--0------|

G|--------------------------------------------|
D|--------------------------------------------|
A|--------------------------------------------|
E|-5-5-5-5--5-5-5-5--5-5-5-5--5-5-5-5\--------|

Parte 02

G|--------------------------------------------|
D|--------------------------------------------|
A|--------------------------------------------|
E|-0-0-0-0--0-0-0-0--0-0-0-0--0-0-0-0---------|

G|--------------------------------------------|
D|--------------------------------------------|
A|--------------------------------------------|
E|-5-5-5-5--5-5-5-5--5-5-5-5------------------|

G|--------------------------------------------|
D|--------------------------------------------|
A|--------------------------------------------|
E|-5-5-5-5-5-5--5-5-5-5-5-5-------------------|

Refrão 

She's got the jack, she's got the jack

Parte 01 ( Tocar 2x )

G|--------------------------------------------|
D|--------------------------------------------|
A|--------------------------------------------|
E|-0-0--0-0--0-0--0-0---0-0--0-0--0-0--0-0----|
Parte 02

G|--------------------------------------------|
D|--------------------------------------------|
A|--------------------------------------------|
E|-5-5--5-5--5-5--5-5---5-5--5-5--5-5--5-5----|

G|--------------------------------------------|
D|--------------------------------------------|
A|--------------------------------------------|
E|-0-0--0-0--0-0--0-0---0-0--0-0--0-0--0-5----|

G|--------------------------------------------|
D|--------------------------------------------|
A|--------------------------------------------|
E|-7-7-7-7-7-7--7-7-7-7-7--5-5-5-5-5-5--------|

G|--------------------------------------------|
D|--------------------------------------------|
A|--------------------------------------------|
E|-5-5-5-5-5-5--------------------------------|

Parte 03

G|--------------------------------------------|
D|--------------------------------------------|
A|--------------------------------------------|
E|-0-0--0-0--0-0--0-0---0-0-0--5-6------------|

G|--------------------------------------------|
D|--------------------------------------------|
A|--------------------------------------------|
E|-7-7-7-7-5-3--------------------------------|

Solo de Guitarra

Parte 01 ( tocar 2x )

G|--------------------------------------------|
D|--------------------------------------------|
A|--------------------------------------------|
E|-0-0-0-0--0-0-0-0--0-0-0-0--0-0-0-0---------|

Parte 02

G|--------------------------------------------|
D|--------------------------------------------|
A|--------------------------------------------|
E|-5-5-5-5--5-5-5-5--5-5-5-5--5-5-5-5---------|

G|--------------------------------------------|
D|--------------------------------------------|
A|--------------------------------------------|
E|-0-0-0-0--0-0-0-0--0-0-0-0--0-0-0-0---------|

Parte 03

G|--------------------------------------------|
D|--------------------------------------------|
A|--------------------------------------------|
E|-7-7-7-7--7-7-7-7--5-5-5-5--5-5-5-5---------|

G|--------------------------------------------|
D|--------------------------------------------|
A|--------------------------------------------|
E|-0-0-0-0—0-0-0-0--0-0-0--5-6--7-7-7--7-7-7--|

Segunda parte

Poker face was her name...

Parte 01

G|--------------------------------------------|
D|--------------------------------------------|
A|--------------------------------------------|
E|-0-0-0-0--0-0-0-0--0-0-0-0--0-0-0-0--0------|

G|--------------------------------------------|
D|--------------------------------------------|
A|--------------------------------------------|
E|-5-5-5-5--5-5-5-5--5-5-5-5--5-5-5-5\--------|

Parte 02

G|--------------------------------------------|
D|--------------------------------------------|
A|--------------------------------------------|
E|-0-0-0-0--0-0-0-0--0-0-0-0--0-0-0-0---------|

G|--------------------------------------------|
D|--------------------------------------------|
A|--------------------------------------------|
E|-5-5-5-5--5-5-5-5--5-5-5-5------------------|

G|--------------------------------------------|
D|--------------------------------------------|
A|--------------------------------------------|
E|-5-5-5-5-5-5--5-5-5-5-5-5-------------------|

Refrão 2

She's got the jack, she's got the jack

Parte 01 

G|--------------------------------------------|
D|--------------------------------------------|
A|--------------------------------------------|
E|-0-0--0-0--0-0--0-0---0-0--0-0--0-0--0-0----|

G|--------------------------------------------|
D|--------------------------------------------|
A|--------------------------------------------|
E|-0-0-0-0--0-0-0-0--0-0-0-2-2-2-3-3-3-4-4-4--|

Parte 02

G|--------------------------------------------|
D|--------------------------------------------|
A|--------------------------------------------|
E|-5-5--5-5--5-5--5-5---5-5--5-5--5-5--5-5----|

G|--------------------------------------------|
D|--------------------------------------------|
A|--------------------------------------------|
E|-0-0--0-0--0-0--0-0---0-0--0-0--0-0--0-5----|

G|--------------------------------------------|
D|--------------------------------------------|
A|--------------------------------------------|
E|-7-7-7-7-7-7--7-7-7-7-7--5-5-5-5-5-5--------|

G|--------------------------------------------|
D|--------------------------------------------|
A|--------------------------------------------|
E|-5-5-5-5-5-5--------------------------------|

Parte 03

G|--------------------------------------------|
D|--------------------------------------------|
A|--------------------------------------------|
E|-0-0--0-0--0-0--0-0---0-0-0--5-6------------|

G|--------------------------------------------|
D|--------------------------------------------|
A|--------------------------------------------|
E|-7-7-7-7-5-3--------------------------------|

Terceira parte

She's got the jack, she's got the jack

Parte 01  ( Tocar 2x )

G|--------------------------------------------|
D|--------------------------------------------|
A|--------------------------------------------|
E|-0-0-0-0--0-0-0-0--0-0-0-0--0-0-0-0---------|

Parte 02

G|--------------------------------------------|
D|--------------------------------------------|
A|--------------------------------------------|
E|-5-5-5-5--5-5-5-5--5-5-5-5--5-5-5-5---------|

G|--------------------------------------------|
D|--------------------------------------------|
A|--------------------------------------------|
E|-0-0-0-0--0-0-0-0--0-0-0-0--0-0-0-0---------|

Parte 03

G|--------------------------------------------|
D|--------------------------------------------|
A|--------------------------------------------|
E|-7-7-7-7-7-7--7-7-7-7-7-7--5-5-5-5-5-5------|

G|--------------------------------------------|
D|--------------------------------------------|
A|--------------------------------------------|
E|-5-5-5-5-5-5--0-0-0-0—0-0-0-0--0-0-0--------|

G|--------------------------------------------|
D|--------------------------------------------|
A|--------------------------------------------|
E|-5-6--7-7-7--7-7-7--------------------------|

Refrão 03 Final

She's got the jack, she's got the jack

Parte 01 

G|--------------------------------------------|
D|--------------------------------------------|
A|-7-------------------------------------5-6--|
E|---0-0-0--0-0-0--5-7--0-0--0-0--0-0--0------|

G|--------------------------------------------|
D|--------------------------------------------|
A|-7--------------5-6-7-----------------------|
E|---0-0-0--0-0-0-------0-0-2-2-2-3-3-3-4-4-4-|

Parte 02

G|--------------------------------------------|
D|--------------------------------------------|
A|--------------------------------------------|
E|-5-5--5-5--5-5--5-3-4--5-5--5-5--5-5-5--4-3-|

G|--------------------------------------------|
D|--------------------------------------------|
A|--------------------------------------------|
E|-0-0-0-0-0-0---5-6-7--0-0--0-0--0-0--0-5----|

Parte 03

G|--------------------------------------------|
D|--------------------------------------------|
A|--------------------------------------------|
E|-7-7-7-7-7-7--7-7-7-7-7-7--5-5-5--3-3-3-----|

G|--------------------------------------------|
D|-------------------10-----------------------|
A|-----------------8----7-7-7-................|
E|-2-2-2—-1-1-1—0-----------------------------|

G|--------------------------------------------|
D|--------------------------------------------|
A|-7\-----------------------------------------|
E|--------------------------------------------|
Composição de Angus Young / Bon Scott / Malcolm Young
Colaboração e revisão:
  • Reginaldo Costa
  • Rafael Reinert
  • Rafael Gumiela
18.254 exibições

0 comentários

Mostrar mais comentários

Conseguiu tocar?

5 Tocaram 1 Ainda não

Grave um vídeo tocando The Jack e mande pra gente!

00:00 / 00:00
outros vídeos desta música
repetir qualidade Automático
Outros vídeos desta música
00:00 / 00:00
Automático
Capítulos
  • Tocando a música
  • Dicas Iniciais / Equipamentos
  • Introdução - Parte 1 de 2
  • Introdução - Parte 2 de 2
  • Primeira Parte - Parte 1 de 2
  • Primeira Parte - Parte 2 de 2
  • Refrão - Parte 1 de 3
  • Refrão - Parte 2 de 3
  • Refrão - Parte 3 de 3
  • Solo de Guitarra - Parte 1 de 3
  • Solo de Guitarra - Parte 2 de 3
  • Solo de Guitarra - Parte 3 de 3
  • Dicas Segunda Parte
  • Refrão 2 - Parte 1 de 3
  • Refrão 2 - Parte 2 de 3
  • Refrão 2 - Parte 3 de 3
  • Terceira Parte - Parte 1 de 3
  • Terceira Parte - Parte 2 de 3
  • Terceira Parte - Parte 3 de 3
  • Dicas Refrão Final
  • Refrão Final - Parte 1 de 3
  • Refrão Final - Parte 2 de 3
  • Refrão Final - Parte 3 de 3
  • Encerramento
  • Ficha Técnica

Cifra Club Pro

Aproveite o Cifra Club com benefícios exclusivos e sem anúncios
7 dias grátis
Cifra Club Pro
Aproveite o Cifra Club com benefícios exclusivos e sem anúncios
7 dias grátis
OK