Cifra Club

Venus Blue

Acid Bath

Cifra: Principal (violão e guitarra)
Selo Cifra Club: esta cifra foi revisada para atender aos critérios oficiais da nossa Equipe de Qualidade.
tom: F
E|-----------------------------------------------------------|
B|-----------------------------------------------------------|
G|-2-3-3-3-2---2---------------------------------------------|
D|-----------3---3-----2-------------------------------------|
A|-----------------0-3---3-0-3/5-5-5-5-5---------------------|
E|-----------------------------------------------------------|


Riff 2: With distortion

E|-----------------------------------------------------------|
B|-----------------------------------------------------------|
G|-2-3-3-3-2---2-----5-5---5/7-7-7-7-7-----------------------|
D|-----------3---3---5-5---5/7-7-7-7-7-----------------------|
A|-----------------0-3-3-0-3/5-5-5-5-5-----------------------|
E|-----------------------------------------------------------|


Riff 3: With distortion

E|-----------------------------------------------------------|
B|-----------------------------------------------------------|
G|-7-7-7-7-7---------5-5---5/7-7-7-7-7-----------------------|
D|-7-7-7-7-7---7-7---5-5---5/7-7-7-7-7-----------------------|
A|-5-5-5-5-5---7-7---3-3-0-3/5-5-5-5-5-0---------------------|
E|-----------0-5-5-0-----------------------------------------|
Outros vídeos desta música
    5 exibições
      • ½ Tom
      • A
      • Bb
      • B
      • C
      • Db
      • D
      • Eb
      • E
      • F
      • F#
      • G
      • Ab
    • Adicionar à lista

    Afinação da cifra

    Afinador online

      0 comentários

      Ver todos os comentários

      Conseguiu tocar?

      0Tocaram0Ainda não

      Grave um vídeo tocando Venus Blue e nos envie!

      Toque também

      1. Imagem do artista Electric WizardFuneralopolis Electric Wizard
      2. Imagem do artista EyehategodGodsong Eyehategod
      3. Imagem do artista CrowbarDead Sun Crowbar
      4. Imagem do artista BongzillaKash Under Glass Bongzilla

      Entre para o Cifra Club PRO

      Tenha acesso a benefícios exclusivos no App e no Site

      • Chega de anúncios

      • Badges exclusivas

      • Mais recursos no app do Afinador

      • Atendimento Prioritário

      • Aumente seu limite de lista

      • Ajude a produzir mais conteúdo

      Cifra Club Pro

      Aproveite o Cifra Club com benefícios exclusivos e sem anúncios
      Cifra Club Pro
      Aproveite o Cifra Club com benefícios exclusivos e sem anúncios
      Ops (: Contenido disponible sólo en portugués.
      OK