Cifra Club

Until The End

Adam Gontier

Cifra: Principal (violão e guitarra)
tom: A
E|---------------------------|
B|------5---4---------5---4--|
G|---------------------------|
D|--2-2---2-------2-2---2----|
A|---------------------------|
E|---------------------------|

          Verso:                 Pré-Refrão;                Refrão;
      C#   A    B    A                                E    B    A    D C#
E|---0----0----0----0----|---0---0---0--0----0---|---0----0----0----0-0---|
B|---0----0----0----0----|---0---0---0--0----0---|---0----0----0----0-0---|
G|---6----2----4----2----|---9---7---7--5----4---|---9----4----2----5-4---|
D|---6----2----4----2----|---9---7---7--5----4---|---9----4----2----5-4---|
A|---4----0----2----0----|---7---5---5--3----2---|---7----2----0----3-2---|
E|-----------------------|-----------------------|------------------------|

      C#   E    B    A
E|---0----0----0----0----|
B|---0----0----0----0----|
G|---6----9----4----2----|
D|---6----9----4----2----|
A|---4----7----2----0----|
E|-----------------------|

Letra:

"Until The End"

Trees breeze and they sway,
A bruised heart and kids play
it's all about you
it's all about you

The birds sleep and they sing
the wind blows, everything,
it's all about you
it's all about you

You're the broken one who wants to win,
when you're down and on your knees,
here is something that you can believe

When the world won't let you in
when your walls come closing in
when it feels like you can't win,
you've got me until the end

When it feels like you're alone,
and you can't find your way home
when you're outside looking in,
remember you've got me until the end

Weeks crash and days hush
a new life, a new rush
it's all about you
it's all about you

I scream and I see
I know everything about you
everything about you

When the world won't let you in
when your walls come closing in
when it feels like you can't win,
you've got me until the end

When it feels like you're alone,
and you can't find your way home
when you're outside looking in,
remember you've got me until the end

Like your first time in the dark
you held your breathe,
your pounding heart
I drift alone somewhere else

You keep talking to yourself,
I swear I heard you cry for help
it's you and me and nothing else

When the world won't let you in
when your walls come closing in
when it feels like you can't win,
you've got me until the end

When it feels like you're alone,
and you can't find your way home
when you're outside looking in,
remember you've got me until the end

When the world won't let you in
when your walls come closing in
when it feels like you can't win,
you've got me until the end
Composição de Adam Gontier
Colaboração e revisão:
  • Paulo Henrique
469 exibições
    • ½ Tom
    • A
    • Bb
    • B
    • C
    • Db
    • D
    • Eb
    • E
    • F
    • F#
    • G
    • Ab
  • Adicionar à lista

    0 comentários

    Ver todos os comentários

    Conseguiu tocar?

    0 Tocaram 0 Ainda não

    Grave um vídeo tocando Until The End e nos envie!

    00:00 / 00:00
    Outros vídeos desta música
    Repetir Qualidade Automático
    Outros vídeos desta música
    00:00 / 00:00
    Automático

    Cifra Club Pro

    Aproveite o Cifra Club com benefícios exclusivos e sem anúncios
    Cifra Club Pro
    Aproveite o Cifra Club com benefícios exclusivos e sem anúncios
    OK