Enviar cifraEntrar

Send My Love (To Your New Lover)

Adele

Cifra: Principal
exibições 59.269
Tom: D
Afinação: Drop D - D A D G B E

Introdução:

Parte 1 de 2
   p.m.. . . .     . . . . . .

E|------------------------------------------|
B|------------------------------------------|
G|-----7---------------7--------------------|
D|---7---------------7----------------------|
A|-5-----5-0-------5-----5-0----------------|
E|-----------2---------------2--------------|


Parte 2 de 2
   p.m.   . .  . . .   .  .   . . . . .

E|------------------------------------------|
B|------------------------------------------|
G|----------4-------------------4-----------|
D|---(h4)-4--------------(h4)-4-------------|
A|-2-----------2-0-----2----------2-0-------|
E|-----------------2------------------2-----|


D5  B5

Primeira Parte:

D5
  This was all you, none of it me

You put your hands 
                      B5
All over my body and told me

You told me you were ready
D5
  For the big one, for the big jump

I'd be your last love everlasting
 B5
You and me

That was what you told me
D5
  I'm giving you up

I've forgiven it all
B5
  You set me free

Refrão:

Parte 1 de 2
   p.m.       .   . . .

E|------------------------------------------|
B|-------3-3--------------------------------|
G|-------2-2--------------------------------|
D|-4--4--4-4--4-----------------------------|
A|-5--5-------5---5-0-----------------------|
E|-0------------------2---------------------|


Parte 2 de 2
   p.m.       .   . . .

E|------------------------------------------|
B|-------3-3--------------------------------|
G|-------4-4--------------------------------|
D|-4--4--4-4--4-----------------------------|
A|-2--2-------52--2-0-----------------------|
E|--------------------2---------------------|


 D
Send my love to your new lover

Treat her better
       Bm
We've gotta let go 

of all of our ghosts

We both know we ain't kids no more
 D
Send my love to your new lover

Treat her better
       Bm
We've gotta let go

Of all of our ghosts

We both know we ain't kids no more

D5

Repete a Primeira Parte:

D5
  I was too strong

You were trembling

You couldn't handle
              B5
The hot heat rising (rising)

Baby, I'm so rising
D5
  I was running, you were walking

You couldn't keep up
                  B5
You were falling down (down)

There's only one way down
D5
  I'm giving you up

I've forgiven it all
B5
  You set me free, oh


Repete o Refrão:

 D
Send my love to your new lover

Treat her better
       Bm
We've gotta let go 

of all of our ghosts

We both know we ain't kids no more
 D
Send my love to your new lover

Treat her better
       Bm
We've gotta let go

Of all of our ghosts

We both know we ain't kids no more

D
  If you're ready, if you're ready

If you're ready, I am ready
Bm
  If you're ready, if you're ready

We both know we ain't kids no more
D5                      B5
  No, we ain't kids no more

Repete a Primeira Parte:

D5
  I'm giving you up

I've forgiven it all
B5
  You set me free


Repete o Refrão:

 D
Send my love to your new lover

Treat her better
       Bm
We've gotta let go 

of all of our ghosts

We both know we ain't kids no more
 D
Send my love to your new lover

Treat her better
       Bm
We've gotta let go

Of all of our ghosts

We both know we ain't kids no more
D
  If you're ready, if you're ready

If you're ready, I am ready
       Bm
We've gotta let go 

of all of our ghosts

We both know we ain't kids no more
D
  If you're ready, if you're ready

If you're ready, I am ready
       Bm
We've gotta let go 

of all of our ghosts

We both know we ain't kids no more
  • 1
  • 2
  • 3
  • 4
  • 5
  • 6
  • 7
  • 8
  • 9
  • 10
  • 11
  • 12
    Acordes para:
      Colaboração e revisão:
      • Gustavo Cunha
      • Gabriel Bruzaca

      0 comentários

        mostrar mais comentários

        Conseguiu tocar?

        3tocaram0ainda não

        Grave um vídeo tocando Send My Love (To Your New Lover) e mande pra gente!

        00:00 / 00:00
        outros vídeos desta música
        repetirqualidadeautomática
        • automática
        Outro vídeos desta música
          Capítulos
          • Tocando a música
          • Dicas Iniciais / Equipamentos
          • Acordes da Introdução e Primeira Parte
          • Tocando a Introdução e Primeira Parte
          • Introdução - Parte 1 de 2
          • Introdução - Parte 2 de 2
          • Acordes do Refrão
          • Tocando o Refrão
          • Refrão - Parte 1 de 2
          • Encerramento
          • Ficha Técnica
          00:00 / 00:00
          automática
          • automática
          Acordes para:violão e guitarra
          dificuldadeexibiçõescontribuições
          fecharplay/pause subir/descer velocidade
            Acordes para:violão e guitarra
            acordes
            fechar
            OK