Cifra Club

Aprenda

Send My Love (To Your New Lover)

Adele

Cifra: Principal (violão e guitarra)
Já pensou em usar uma coleção de roupas do Cifra Club? Responda as perguntas abaixo e nos ajude nessa missão! →
tom: D
Afinação: Drop D - D A D G B E

[Introdução] D5  B5

Parte 1 de 2
   p.m.. . . .     . . . . . .
E|------------------------------------------|
B|------------------------------------------|
G|-----7---------------7--------------------|
D|---7---------------7----------------------|
A|-5-----5-0-------5-----5-0----------------|
E|-----------2---------------2--------------|

Parte 2 de 2
   p.m.   . .  . . .   .  .   . . . . .
E|------------------------------------------|
B|------------------------------------------|
G|----------4-------------------4-----------|
D|---(h4)-4--------------(h4)-4-------------|
A|-2-----------2-0-----2----------2-0-------|
E|-----------------2------------------2-----|

[Primeira Parte]

D5
  This was all you, none of it me

You put your hands 
                      B5
All over my body and told me

You told me you were ready
D5
  For the big one, for the big jump

I'd be your last love everlasting
 B5
You and me

That was what you told me
D5
  I'm giving you up

I've forgiven it all
B5
  You set me free

[Refrão]

Parte 1 de 2
   p.m.       .   . . .
E|------------------------------------------|
B|-------3-3--------------------------------|
G|-------2-2--------------------------------|
D|-4--4--4-4--4-----------------------------|
A|-5--5-------5---5-0-----------------------|
E|-0------------------2---------------------|

Parte 2 de 2
   p.m.       .   . . .
E|------------------------------------------|
B|-------3-3--------------------------------|
G|-------4-4--------------------------------|
D|-4--4--4-4--4-----------------------------|
A|-2--2-------2---2-0-----------------------|
E|--------------------2---------------------|

 D
Send my love to your new lover

Treat her better
       Bm
We've gotta let go 

Of all of our ghosts

We both know we ain't kids no more
 D
Send my love to your new lover

Treat her better
       Bm
We've gotta let go

Of all of our ghosts

We both know we ain't kids no more

( D5 )

[Primeira Parte]

D5
  I was too strong

You were trembling

You couldn't handle
              B5
The hot heat rising (rising)

Baby, I'm so rising
D5
  I was running, you were walking

You couldn't keep up
                  B5
You were falling down (down)

There's only one way down
D5
  I'm giving you up

I've forgiven it all
B5
  You set me free, oh

[Refrão]

 D
Send my love to your new lover

Treat her better
       Bm
We've gotta let go 

Of all of our ghosts

We both know we ain't kids no more
 D
Send my love to your new lover

Treat her better
       Bm
We've gotta let go

Of all of our ghosts

We both know we ain't kids no more

D
  If you're ready, if you're ready

If you're ready, I am ready
Bm
  If you're ready, if you're ready

We both know we ain't kids no more
D5                      B5
  No, we ain't kids no more

[Primeira Parte]

D5
  I'm giving you up

I've forgiven it all
B5
  You set me free

[Refrão]

 D
Send my love to your new lover

Treat her better
       Bm
We've gotta let go 

Of all of our ghosts

We both know we ain't kids no more
 D
Send my love to your new lover

Treat her better
       Bm
We've gotta let go

Of all of our ghosts

We both know we ain't kids no more
D
  If you're ready, if you're ready

If you're ready, I am ready
       Bm
We've gotta let go 

Of all of our ghosts

We both know we ain't kids no more
D
  If you're ready, if you're ready

If you're ready, I am ready
       Bm
We've gotta let go 

Of all of our ghosts

We both know we ain't kids no more
Composição de Adele / Max Martin / Shellback
Colaboração e revisão:
  • Gustavo Cunha
  • Gabriel Bruzaca
93.832 exibições
  • Simplificar cifra
    • ½ Tom
    • A
    • Bb
    • B
    • C
    • Db
    • D
    • Eb
    • E
    • F
    • F#
    • G
    • Ab
  • Adicionar à lista

    0 comentários

    Ver todos os comentários

    Conseguiu tocar?

    7 Tocaram 3 Ainda não

    Grave um vídeo tocando Send My Love (To Your New Lover) e nos envie!

    00:00 / 00:00
    Outros vídeos desta música
    Repetir Qualidade Automático
    Outros vídeos desta música
    00:00 / 00:00
    Automático
    Capítulos
    • Tocando a música
    • Dicas Iniciais / Equipamentos
    • Acordes da Introdução e Primeira Parte
    • Tocando a Introdução e Primeira Parte
    • Introdução - Parte 1 de 2
    • Introdução - Parte 2 de 2
    • Acordes do Refrão
    • Tocando o Refrão
    • Refrão - Parte 1 de 2
    • Encerramento
    • Ficha Técnica

    Cifra Club Pro

    Aproveite o Cifra Club com benefícios exclusivos e sem anúncios
    Cifra Club Pro
    Aproveite o Cifra Club com benefícios exclusivos e sem anúncios
    OK