Cifra Club

God called in sick today

AFI

Cifra: Principal (violão e guitarra)
Selo Cifra Club: esta cifra foi revisada para atender aos critérios oficiais da nossa Equipe de Qualidade.
tom: Bb
Intro/Solo?     **Distortion OFF**  Play X2      (singing starts on the 2nd) 
e|---------------------------------------------------------------------------| 
B|------------------------------|--------------------------------------------| 
G|-----------3--------3---------|-----------2--------2-----------------------| 
D|-----5--5-----5--5-----5--5---|-----3--3-----3--3-----3--3-----------------| 
A|------------------------------|--------------------------------------------| 
E|---------------------------------------------------------------------------| 

e|---------------------------------------------------------------------------| 
B|------------------------------|--------------------------------------------| 
G|-----------2--------2---------|-----------3--------3-----------------------| 
D|-----0--0-----0--0-----0--0---|-----1--1-----1--1-----1--1-----------------| 
A|------------------------------|--------------------------------------------| 
E|---------------------------------------------------------------------------| 

e|---------------------------------------------------------------------------| 
B|-----------------6------------|--------------------------------------------| 
G|-----------3--------3---------|-----------2--------2-----------------------| 
D|-----5--5-----5--------5--5---|-----3--3-----3--3-----3--3-----------------| 
A|------------------------------|--------------------------------------------| 
E|---------------------------------------------------------------------------| 

e|---------------------------------------------------------------------------| 
B|------------------------------|--------------------------------------------| 
G|-----------2--3--2------------|-----------3--------3-----------------------| 
D|-----0--3-----------3--0--3---|-----1--1-----1--1-----1--1-----------------| 
A|------------------------------|--------------------------------------------| 
E|---------------------------------------------------------------------------| 


Second part to Intro: **Palm Muted/Distortion OFF**   Play 1 and a half times 
e|---------------------------------------------------------------------------| 
B|------------------------------|--------------------------------------------| 
G|-----------3--------3---------|-----------2--------2-----------------------| 
D|-----5--5-----5--5-----5--5---|-----3--3-----3--3-----3--3-----------------| 
A|------------------------------|-------------------------------stop here on-| 
E|--------------------------------------------------------------second time--| 

e|---------------------------------------------------------------------------| 
B|------------------------------|--------------------------------------------| 
G|-----------2--------2---------|-----------3--------3-----------------------| 
D|-----0--0-----0--0-----0--0---|-----1--1-----1--1-----1--1-----------------| 
A|------------------------------|--------------------------------------------| 
E|---------------------------------------------------------------------------| 

Here Are The Lyrics:

Lets admire the pattern forming 
Murderous filigree 
I'm caught in the twisting of the vine 
Go ascend with ivy, climbing 
Ignore and leave for me the headstone crumbling behind 
I cant help my laughter as she cries 
My soul brings tears to angelic eyes 
Lets amend the classic story, close it so beautifully, 
I'll let animosity unwind 
Steal away the darkened pages, hidden so shamefully 
I'll still feel the violence of the lines 
I cant stand my laughter as they cry 
My soul brings tears to angelic eyes 
And miles away my mother cries 
Omnipotence, nurturing malevolence. 
Outros vídeos desta música
    3.575 exibições
      • ½ Tom
      • A
      • Bb
      • B
      • C
      • Db
      • D
      • Eb
      • E
      • F
      • F#
      • G
      • Ab
    • Adicionar à lista

    Afinação da cifra

    Afinador online

      0 comentários

      Ver todos os comentários

      Entre para o Cifra Club PRO

      Tenha acesso a benefícios exclusivos no App e no Site

      • Chega de anúncios

      • Badges exclusivas

      • Mais recursos no app do Afinador

      • Atendimento Prioritário

      • Aumente seu limite de lista

      • Ajude a produzir mais conteúdo

      Cifra Club Pro

      Aproveite o Cifra Club com benefícios exclusivos e sem anúncios
      Cifra Club Pro
      Aproveite o Cifra Club com benefícios exclusivos e sem anúncios
      Ops (: Contenido disponible sólo en portugués.
      OK