Cifra Club

Aprenda

Last Sunrise

Aiden

Cifra: Principal (violão e guitarra)
tom: F
I only know some of it but I will have more of the song on tuesday...so what i have now 
be enough to start you off with...

-Intro- (*) pull off the notes on the d string.

E--------------------------------------------------------------------|
B--------------------------------------------------------------------|
G--------------------------------------------------------------------|
D--00-3-0-5-0-3-0--00-3-0-5-0-3-0--00-3-0-5-0-3-0-8-0-7-0-5-0-7-0----|   x4
A--00--------------00--------------00--------------------------------|
D--00--------------00--------------00--------------------------------|

-Intro harmony-

E---------------------------------------------------------------------|
B---------------------------------------------------------------------|
G---------------------------------------------------------------------|
D--00-7-0-8-0-7-0--00-7-0-8-0-7-0--00-7-0-8-0-7-0-12-0-10-0-8-0-10-0--| x4
A--00--------------00--------------00---------------------------------|
D--00--------------00--------------00---------------------------------|

-verse- (00:15-00:30)
listen for strumming pattern

E---------------------------------------------------|
B---------------------------------------------------|
G---------------------------------------------------|
D--00000000-8888-10101010-00000000-8888-10101010-0~-|
A--00000000-8888-10101010-00000000-8888-10101010-0~-|
D--00000000-8888-10101010-00000000-8888-10101010-0~-|

I think this is what is played behind the verse...listen to see how many times to play 
just strummed up and down over and over again..

E----
B----
G--12
D----
A--10
D----
-Chorus- (00:30-00:45)
listen for strumming pattern

E----------------------------|
B--10--6--8--10--13--11--10--|
G----------------------------|
D---7--3--5---7--10---8---7--|
A----------------------------|
D----------------------------|

-verse- (00:45-01:00)
listen for strumming pattern

E---------------------------------------------------|
B---------------------------------------------------|
G---------------------------------------------------|
D--00000000-8888-10101010-00000000-8888-10101010-0~-|
A--00000000-8888-10101010-00000000-8888-10101010-0~-|
D--00000000-8888-10101010-00000000-8888-10101010-0~-|

then something goes on here but i dont know what it is yet


-Chorus- (01:17-01:46)
listen for strumming pattern

E----------------------------|
B--10--6--8--10--13--11--10--|
G----------------------------|
D---7--3--5---7--10---8---7--|  x2
A----------------------------|
D----------------------------|


theres a big area of stuff after the chorus but idk what


-Chorus- (02:47-03:15)
listen for strumming pattern

E----------------------------|
B--10--6--8--10--13--11--10--|
G----------------------------|
D---7--3--5---7--10---8---7--|  x2
A----------------------------|
D----------------------------|

-outro- (03:15-03:31)

E--------------------------------------------------------------------|
B--------------------------------------------------------------------|
G--------------------------------------------------------------------|
D--00-3-0-5-0-3-0--00-3-0-5-0-3-0--00-3-0-5-0-3-0-8-0-7-0-5-0-7-0----|   x4
A--00--------------00--------------00--------------------------------|
D--00--------------00--------------00--------------------------------|

-outro harmony-

E---------------------------------------------------------------------|
B---------------------------------------------------------------------|
G---------------------------------------------------------------------|
D--00-7-0-8-0-7-0--00-7-0-8-0-7-0--00-7-0-8-0-7-0-12-0-10-0-8-0-10-0--| x4
A--00--------------00--------------00---------------------------------|
D--00--------------00--------------00---------------------------------|
Composição de Not Documented
666 exibições
    • ½ Tom
    • A
    • Bb
    • B
    • C
    • Db
    • D
    • Eb
    • E
    • F
    • F#
    • G
    • Ab
  • Adicionar à lista

    0 comentários

    Ver todos os comentários

    Conseguiu tocar?

    0 Tocaram 0 Ainda não

    Grave um vídeo tocando Last Sunrise e nos envie!

    00:00 / 00:00
    Outros vídeos desta música
    Repetir Qualidade Automático
    Outros vídeos desta música
    00:00 / 00:00
    Automático

    Cifra Club Pro

    Aproveite o Cifra Club com benefícios exclusivos e sem anúncios
    Cifra Club Pro
    Aproveite o Cifra Club com benefícios exclusivos e sem anúncios
    OK