Cifra Club

Aprenda

Moment

Aiden

Cifra: Principal (violão e guitarra)
tom: B
                             moment- Band Name
Tabbed by: les paul fan
Email: *

it might not sound perfect with destorcian.

intro Guitar 1 only
e|------------------------------|
B|------------------------------|
G|-7777--------3333777755553333-|
D|-7777777733333333777755553333-| x1
A|-5555777733331111555533331111-|
E|-----55551111-----------------|
verse 
e|----------------------------------------------------------|
B|----------------------------------------------------------|
G|---------444444446666666655555555--------6666666655555555-|
D|-33333333444444446666666655555555333333336666666655555555-| x2
A|-33333333222222224444444433333333333333334444444433333333-|
E|-11111111------------------------11111111-----------------|
Pm---------------------------------------------------------
Not completely shure Pre chorus guitar 2
e|----------------------|
B|----------------------|
G|---4---4----3---3-----|
D|--4-4-4-4--3-3-3-3----|
A|-2--------2-----------|
E|----------------------|

Pre chorus guitar 1
e|-------------|
B|-------------|
G|-3-333-6-666-|
D|-3-333-6-666-|
A|-1-111-4-444-|
E|-------------|

Guitar 1 chorus
e|------------------------------|
B|------------------------------|
G|-7777--------3333777755553333-|
D|-7777777733333333777755553333-|x1
A|-5555777733331111555533331111-|
E|-----55551111-----------------|

Not completely shure Guitar 2 chorus
e|----------------------------------|
B|-----10-----10-------10-----10----|
G|---10--10-10--10---10--10-10--10--|
D|-12--------------11---------------| x2
A|----------------------------------|
E|----------------------------------|

Repeat verse

Repeat pre chorus

Repeat chorus x2

Bridge guitar 1
Not quite shure I think its something like this
e|-------------------------------------------------------------------|
B|---------------------55---------------------------------55---------|
G|-77777777777777773333555577777777777777777777777773333555577777777-|
D|-77777777777777773333335577777777777777777777777773333553377777777-|
A|-55555555555555551111--335555555555555555555555551111333--55555555-|
E|-------------------------------------------------------------------|
pm------------------------------------------------------------------
continued
e|--------------------x2-------------------|---------------|
B|-----------------------------------------|---------------|
G|-3333333355555555333333335555555577775555|-3333333355557-|
D|-3333333355555555333333335555555577775555|-3333333355557-|
A|-1111111133333333111111113333333355553333|-1111111133335-|
E|-----------------------------------------|---------------|

Guitar 1 pre chorus altered
|---------------|
|---------------|
|-3333333355557-|
|-3333333355557-|
|-1111111133335-|
|---------------|

Not completely shure Pre chorus guitar 2
e|----------------------|
B|----------------------|
G|---4---4----3---3-----|
D|--4-4-4-4--3-3-3-3----|
A|-2--------2-----------|
E|----------------------|

Repeat chorus x2


Please rate!
Composição de Aiden
1.027 exibições
    • ½ Tom
    • A
    • Bb
    • B
    • C
    • Db
    • D
    • Eb
    • E
    • F
    • F#
    • G
    • Ab
  • Adicionar à lista

    0 comentários

    Ver todos os comentários

    Conseguiu tocar?

    0 Tocaram 0 Ainda não

    Grave um vídeo tocando Moment e nos envie!

    00:00 / 00:00
    Outros vídeos desta música
    Repetir Qualidade Automático
    Outros vídeos desta música
    00:00 / 00:00
    Automático

    Cifra Club Pro

    Aproveite o Cifra Club com benefícios exclusivos e sem anúncios
    Cifra Club Pro
    Aproveite o Cifra Club com benefícios exclusivos e sem anúncios
    OK