Cifra Club

Aprenda

Always Alright

Alabama Shakes

Cifra: Principal (violão e guitarra)
tom: A
The intro goes something like:

E|----------------------------------------------------|
B|----------------------------------------------------|
G|----------------------------------------------------|
D|----------------------------------------------------|
A|-----------------0-4-0-4-0-4-0-4--------------------|
E|-0-4-0-4-0-4-0-4------------------------------------|


or


E|----------------------------------------------------|
B|--------------------5--5-5--------------------------|
G|-------9h11-9-------6--6-6--------------------------|
D|-9--9--9h11-9-------7--7-7--------------------------|
A|-11-11-------11-9---7--7-7--------------------------|
E|-0--0-----------------------------------------------|



midle riff1 with rythm

E|----------------------------------------------------|
B|-7/9-9-9--------------------------------------------| 
G|-7/9-9-9--------------------------------------------|  4x riff E chord
D|-7/9-9-9--------------------------------------------| 
A|----------------------------------------------------|
E|----------------------------------------------------|

E|-7/9---9--9-----------------------------------------|
B|-8/10--10-10----------------------------------------|
G|-7/9---9--9-----------------------------------------|  4x riff A chord
D|----------------------------------------------------|
A|----------------------------------------------------|
E|----------------------------------------------------|

E|-12-12-12-------------------------------------------|
B|-12-12-12-------------------------------------------|
G|-13-13-13-------------------------------------------|  riff last E chord
D|----------------------------------------------------|
A|----------------------------------------------------|
E|----------------------------------------------------|




E A E A

              E
Well you come upstairs 
      
But not to talk

You stay a little while
                             A                E
And you do a little walk on home

I hear you downstairs smokin' cigarettes 

I hear you talking shit
                                          A                     E
Cause you ain't got nothin' talk about at all

So you took me to the party 

You got me alone

Said you wanna feel good 
                                         A
Cause you feel like you're gonna explode
        E
Well, I don't care 

Can't pay attention 
                                               A
And I don't give a damn about your intentions at all
                    E      A      E      A
Ooo oo ee ooo
        E
Well pass me the whiskey, pass me the gin
                                                  A
Pass whatever there's drank left in
       E
Well I don't care if its seven in the morning
                                                           A
For all I care it could be the 2nd coming
       E
Well you say you can't take it anymore

You can't live like this
                            A
It's a really big deal
       E
Well I don't care 

I can't pay attention
                                                    A
And I don't give a fuck about your intentions at all
                          E      A      E      A      E      A      E      A  x2   or riff1
who who oww oo

Oowww
          E
Well alright
            A
We're always alright
          E
We're alright
            A
We're always alright
          E
We're alright
            A
We're always alright alright
                     E
Ready alright
Composição de Brittany Howard / Heath Fogg / Steven Johnson / Zac Cockrell
Colaboração e revisão:
  • Cleber Silva
  • Vanna
2.614 exibições
    • ½ Tom
    • A
    • Bb
    • B
    • C
    • Db
    • D
    • Eb
    • E
    • F
    • F#
    • G
    • Ab
  • Adicionar à lista

    0 comentários

    Ver todos os comentários

    Conseguiu tocar?

    0 Tocaram 0 Ainda não

    Grave um vídeo tocando Always Alright e nos envie!

    00:00 / 00:00
    Outros vídeos desta música
    Repetir Qualidade Automático
    Outros vídeos desta música
    00:00 / 00:00
    Automático

    Cifra Club Pro

    Aproveite o Cifra Club com benefícios exclusivos e sem anúncios
    Cifra Club Pro
    Aproveite o Cifra Club com benefícios exclusivos e sem anúncios
    OK