Cifra Club

Made For You

Alexander Cardinale

Cifra: Principal (violão e guitarra)
tom: B
Intro 
|--------------------------|--------------------------|
|---0--0--0--0--0--0--0--0-|---0--0--0--0--0--0--0--0-|
|--------------------------|--------------------------|
|--9--9--9--9--9--9--9--8--|--6--6--6--6--9--9--9--9--|
|--------------------------|--------------------------|
|-7--7--7--7--7--7--7--6---|-4--4--4--4--7--7--7--7---|

                               I never did believe

|--------------------------|--------------------------|
|---------------0--0--0--0-|---0--0--0--0--0--0--0--0-|
|---1--1--1--1-------------|--------------------------|
|--2--2--2--2--9--9--9--8--|--6--6--6--6--9--9--9--9--|
|--------------------------|--------------------------|
|-0--0--0--0--7--7--7--6---|-4--4--4--4--7--7--7--7---|

  In what I couldn't see        Long before I knew

|--------------------------|--------------------------|
|---------0--0--0--0--0--0-|---0--0--0--0--0--0--0--0-|
|---1--1-------------------|--------------------------|
|--2--2--4--4--9--9--9--8--|--6--6--6--6--9--9--9--9--|
|--------------------------|--------------------------|
|-0--0--2--2--7--7--7--6---|-4--4--4--4--7--7--7--7---|

 Darling I was made for you    Took a train downtown

|--------------------------|--------------------------|
|---------------0--0--0--0-|---0--0--0--0--0--0--0--0-|
|---1--1--1--1-------------|--------------------------|
|--2--2--2--2--9--9--9--8--|--6--6--6--6--9--9--9--9--|
|--------------------------|--------------------------|
|-0--0--0--0--7--7--7--6---|-4--4--4--4--7--7--7--7---|

 Gave us time to talk about the things that we could do

|--------------------------|--------------------------|
|---0--0--0--0--0--0--0--0-|---0--0--0--0--0--0--0--0-|
|--------------------------|--------------------------|
|--9--9--4--4--9--9--9--9--|--6--6--4--4--9--9--9--9--|
|--------------------------|--------------------------|
|-7--7--2--2--7--7--7--7---|-4--4--2--2--7--7--7--7---|

 Darling I was made for you   Oh I was made for you


Acordes
   B   A#  G#  E   e   E*  F#
|-0-|-6-|-4-|-0-|-0-|-4-|-2-|
|-0-|-7-|-4-|-0-|-0-|-5-|-2-|
|-8-|-6-|-4-|-9-|-1-|-4-|-3-|
|-9-|-8-|-6-|-9-|-2-|-6-|-4-|
|-9-|-9-|-6-|-7-|-2-|-7-|-4-|
|-7-|-6-|-4-|-0-|-0-|-4-|-2-|

B E B A#
G# E* F# G# F#
B E B A#
G# F# BB A#

G#           B     e               B   A#
Any Other guy that made you say goodbye.
G#           B           E*             F#       B A#
Must've been a fool. But darling I was made for you.
G#                B A# e                   B A#
There's not much that I know. Been searching high and low.
G#                B             E*          F#     B
The one thing that is true. Darling I was made for you.
   E*   F#     B  A#
Oh I was made for you

G#    e/E*   B A#
G#    E*     F#   G# F#
G#    E*     B A#
     G#    F#     B
Darling I was made for you
B    A#  E*       B
With your smile illuminating
B   A# E*              B
Save my heart that needed saving
B  A# E*         B
No way I could be mistaken
      G#    F#      B
Darling I was made for you

|--------------------------|--------------------------|
|---0--0--0--0--0--0--0--0-|---------------0--0--0--0-|
|--------------------------|---1--1--1--1-------------|
|--6--6--6--6--9--9--9--9--|--2--2--2--2--9--9--9--8--|
|--------------------------|--------------------------|
|-4--4--4--4--7--7--7--7---|-0--0--0--0--7--7--7--6---|

There's not much that I know Been searching high & low

|--------------------------|--------------------------|
|---0--0--0--0--0--0--0--0-|---0--0--1--1--0--0--0--0-|
|--------------------------|--------------------------|
|--6--6--6--6--9--9--9--9--|--6--6--2--2--9--9--9--9--|
|--------------------------|--------------------------|
|-4--4--4--4--7--7--7--7---|-4--4--2--2--7--7--7--7---|

 The one thing that is true Darling I was made for you

|--------------------------|
|---0--0--------0--0--0--0-|
|---------1--1-------------|
|--6--6--2--2--9--9--9--9--|
|--------------------------|
|-4--4--2--2--7--7--7--7---|

   Oh I was made for you!


G#    e/E*   B A#
G#    E*     F#   G# F#
G#    E*     B

B A#    G#     F#       B
Darling I was made for you
    G#    F#       B
Oh I was made for you
        G#     F#       B
Darling I was made for you
   G#     F#       B
Oh I was made for you.
00:00 / 00:00
Outros vídeos desta música
Repetir
Outros vídeos desta música
Composição de Desconhecido
Colaboração e revisão:
  • Lucas Gonçalves
935 exibições
    • ½ Tom
    • A
    • Bb
    • B
    • C
    • Db
    • D
    • Eb
    • E
    • F
    • F#
    • G
    • Ab
  • Adicionar à lista

    0 comentários

    Ver todos os comentários

    Conseguiu tocar?

    0 Tocaram 0 Ainda não

    Grave um vídeo tocando Made For You e nos envie!

    Entre para oCifra Club PRO

    Tenha acesso a benefícios exclusivos no App e no Site

    • Chega de anúncios

    • Prioridade de compra em lançamentos

    • Mais recursos no app do Afinador

    • Atendimento Prioritário

    • Descontos nos produtos Cifra Club

    • Ajude a produzir mais conteúdo

    00:00 / 00:00

    Cifra Club Pro

    Aproveite o Cifra Club com benefícios exclusivos e sem anúncios
    Cifra Club Pro
    Aproveite o Cifra Club com benefícios exclusivos e sem anúncios
    OK