Cifra Club

Aprenda

A Looking In View

Alice In Chains

Cifra: Principal (violão e guitarra)
tom: F#
This is the new alice in chains song from their new album "Black Gives Way to Blue"

this is in drop D and down a step.

Intro
Eb|-----------------------------|
Bb|-----------------------------|
Gb|-----------------------------|
Db|-0-1-1-1-1--0-0-1-1-0-0-0----|
Ab|-0-1-1-1-1--0-0-1-1-0-0-0----| 4x
Db|-0-1-1-1-1--0-0-1-1-0-0-0----|
[      P-M               ]

Main Riff
Eb|-----------------------------------------------------------------------------|
Bb|-----------------------------------------------------------------------------|
Gb|-----------------------------------------------------------------------------|
Db|-0-1-1-1-1-0-----------0-0-1-1-0-0-0----0-1-1-1-1-0-----------0-0-1-1-0-0-0--|
Ab|-0-1-1-1-1-0----4b-----0-0-1-1-0-0-0----0-1-1-1-1-0----1b-----0-0-1-1-0-0-0--|
Db|-0-1-1-1-1-0-----------0-0-1-1-0-0-0----0-1-1-1-1-0-----------0-0-1-1-0-0-0--|

Eb|-----------------------------------------------------------------------------|
Bb|-----------------------------------------------------------------------------|
Gb|-----------------------------------------------------------------------------|
Db|-0-1-1-1-1-0----5b-----0-0-1-1-0-0-0--0-1-1-1-1-0-----------0-0-1-1-0-0-0----|
Ab|-0-1-1-1-1-0-----------0-0-1-1-0-0-0--0-1-1-1-1-0----4b-----0-0-1-1-0-0-0----|
Db|-0-1-1-1-1-0-----------0-0-1-1-0-0-0--0-1-1-1-1-0-----------0-0-1-1-0-0-0----|

Lead during the main riff
Eb|-----------------------------------------------------------------------------5---|
Bb|---------------------------------------------------------------------------5-----|
Gb|--7b9-7b9b7-6~---4b6-4b6b4-2~-2h3p2--7b9-7b9b7-6~--4b6-4b6b4-2~-2h3p2----7-------|
Db|---------------------------------------------------------------------------------|
Ab|---------------------------------------------------------------------------------|
Db|---------------------------------------------------------------------------------|

Verse(palm muted)
Eb|-----------------------------|
Bb|-----------------------------|
Gb|-----------------------------|
Db|-0-1-1-1-1--0-0-1-1-0-0-0----|
Ab|-0-1-1-1-1--0-0-1-1-0-0-0----| 4x
Db|-0-1-1-1-1--0-0-1-1-0-0-0----|

main riff
Eb|-----------------------------------------------------------------------------|
Bb|-----------------------------------------------------------------------------|
Gb|-----------------------------------------------------------------------------|
Db|-0-1-1-1-1-0-----------0-0-1-1-0-0-0----0-1-1-1-1-0-----------0-0-1-1-0-0-0--|
Ab|-0-1-1-1-1-0----4b-----0-0-1-1-0-0-0----0-1-1-1-1-0----1b-----0-0-1-1-0-0-0--|
Db|-0-1-1-1-1-0-----------0-0-1-1-0-0-0----0-1-1-1-1-0-----------0-0-1-1-0-0-0--|

Eb|-----------------------------------------------------------------------------|
Bb|-----------------------------------------------------------------------------|
Gb|-----------------------------------------------------------------------------|
Db|-0-1-1-1-1-0----5b-----0-0-1-1-0-0-0--0-1-1-1-1-0-----------0-0-1-1-0-0-0----|
Ab|-0-1-1-1-1-0-----------0-0-1-1-0-0-0--0-1-1-1-1-0----4b-----0-0-1-1-0-0-0----|
Db|-0-1-1-1-1-0-----------0-0-1-1-0-0-0--0-1-1-1-1-0-----------0-0-1-1-0-0-0----|

Verse(palm muted)
Eb|-----------------------------|
Bb|-----------------------------|
Gb|-----------------------------|
Db|-0-1-1-1-1--0-0-1-1-0-0-0----|
Ab|-0-1-1-1-1--0-0-1-1-0-0-0----| 4x
Db|-0-1-1-1-1--0-0-1-1-0-0-0----|

Main riff(2x)
Eb|-----------------------------------------------------------------------------|
Bb|-----------------------------------------------------------------------------|
Gb|-----------------------------------------------------------------------------|
Db|-0-1-1-1-1-0-----------0-0-1-1-0-0-0----0-1-1-1-1-0-----------0-0-1-1-0-0-0--|
Ab|-0-1-1-1-1-0----4b-----0-0-1-1-0-0-0----0-1-1-1-1-0----1b-----0-0-1-1-0-0-0--|
Db|-0-1-1-1-1-0-----------0-0-1-1-0-0-0----0-1-1-1-1-0-----------0-0-1-1-0-0-0--|

Eb|-----------------------------------------------------------------------------|
Bb|-----------------------------------------------------------------------------|
Gb|-----------------------------------------------------------------------------|
Db|-0-1-1-1-1-0----5b-----0-0-1-1-0-0-0--0-1-1-1-1-0-----------0-0-1-1-0-0-0----|
Ab|-0-1-1-1-1-0-----------0-0-1-1-0-0-0--0-1-1-1-1-0----4b-----0-0-1-1-0-0-0----|
Db|-0-1-1-1-1-0-----------0-0-1-1-0-0-0--0-1-1-1-1-0-----------0-0-1-1-0-0-0----|

Pre-chorus(2x)
Eb|------------------------------------------------------------------------|
Bb|------------------------------------------------------------------------|
Gb|------------------------------------------------------------------------|
Db|-0-1-3-0-3-5-0-5-7-0-7-8-0-8-7------1-3-0-3-5-0-5-7-0-7-8-0-0-8-7-------|
Ab|-0-1-3-0-3-5-0-5-7-0-7-8-0-8-7-6-5--1-3-0-3-5-0-5-7-0-7-8-0-0-8-7-------|
Db|-0-1-3-0-3-5-0-5-7-0-7-8-0-8-7------1-3-0-3-5-0-5-7-0-7-8-0-0-8-7-------|

Chorus(2x)
Eb|----------------------------------------------------------------------------|
Bb|----------------------------------------------------------------------------|
Gb|----------------------------------------------------------------------------|
Db|-7s5-777777777s7-7s3-55555555s8-8-7-0--0-3-0---0-3-5--5-3-0--0-3-0----0-3-5-|
Ab|-7s5-555555555s7-7s3-33333333s8-8-7-0--0-3-0---0-3-5--5-3-0--0-3-0----0-3-5-|
Db|-7s5-555555555s7-7s3-33333333s8-8-7-0--0-3-0---0-3-5--5-3-0--0-3-0----0-3-5-|

Intro 4x
Eb|-----------------------------|
Bb|-----------------------------|
Gb|-----------------------------|
Db|-0-1-1-1-1--0-0-1-1-0-0-0----|
Ab|-0-1-1-1-1--0-0-1-1-0-0-0----|
Db|-0-1-1-1-1--0-0-1-1-0-0-0----|

Verse 4x
Eb|-----------------------------|
Bb|-----------------------------|
Gb|-----------------------------|
Db|-0-1-1-1-1--0-0-1-1-0-0-0----|
Ab|-0-1-1-1-1--0-0-1-1-0-0-0----|
Db|-0-1-1-1-1--0-0-1-1-0-0-0----|

Main riff
Eb|-----------------------------------------------------------------------------|
Bb|-----------------------------------------------------------------------------|
Gb|-----------------------------------------------------------------------------|
Db|-0-1-1-1-1-0-----------0-0-1-1-0-0-0----0-1-1-1-1-0-----------0-0-1-1-0-0-0--|
Ab|-0-1-1-1-1-0----4b-----0-0-1-1-0-0-0----0-1-1-1-1-0----1b-----0-0-1-1-0-0-0--|
Db|-0-1-1-1-1-0-----------0-0-1-1-0-0-0----0-1-1-1-1-0-----------0-0-1-1-0-0-0--|

Eb|-----------------------------------------------------------------------------|
Bb|-----------------------------------------------------------------------------|
Gb|-----------------------------------------------------------------------------|
Db|-0-1-1-1-1-0----5b-----0-0-1-1-0-0-0--0-1-1-1-1-0-----------0-0-1-1-0-0-0----|
Ab|-0-1-1-1-1-0-----------0-0-1-1-0-0-0--0-1-1-1-1-0----4b-----0-0-1-1-0-0-0----|
Db|-0-1-1-1-1-0-----------0-0-1-1-0-0-0--0-1-1-1-1-0-----------0-0-1-1-0-0-0----|

Pre-chorus(2x)
Eb|------------------------------------------------------------------------|
Bb|------------------------------------------------------------------------|
Gb|------------------------------------------------------------------------|
Db|-0-1-3-0-3-5-0-5-7-0-7-8-0-8-7------1-3-0-3-5-0-5-7-0-7-8-0-0-8-7-------|
Ab|-0-1-3-0-3-5-0-5-7-0-7-8-0-8-7-6-5--1-3-0-3-5-0-5-7-0-7-8-0-0-8-7-------|
Db|-0-1-3-0-3-5-0-5-7-0-7-8-0-8-7------1-3-0-3-5-0-5-7-0-7-8-0-0-8-7-------|

Chorus
Eb|----------------------------------------------------------------------------|
Bb|----------------------------------------------------------------------------|
Gb|----------------------------------------------------------------------------|
Db|-7s5-777777777s7-7s3-55555555s8-8-7-0--0-3-0---0-3-5--5-3-0--0-3-0----0-3-5-|
Ab|-7s5-555555555s7-7s3-33333333s8-8-7-0--0-3-0---0-3-5--5-3-0--0-3-0----0-3-5-|
Db|-7s5-555555555s7-7s3-33333333s8-8-7-0--0-3-0---0-3-5--5-3-0--0-3-0----0-3-5-|

Eb|----------------------------------------------------------------------|
Bb|----------------------------------------------------------------------|
Gb|----------------------------------------------------------------------|
Db|-7s5-777777777s7-7s3-55555555s8-8-7-0--0-3-0---0-3-5--5-3-0--0-3-0----|
Ab|-7s5-555555555s7-7s3-33333333s8-8-7-0--0-3-0---0-3-5--5-3-0--0-3-0----|
Db|-7s5-555555555s7-7s3-33333333s8-8-7-0--0-3-0---0-3-5--5-3-0--0-3-0----|

Eb|------------------------------------------------------------|
Bb|------------------------------------------------------------|
Gb|------------------------------------------------------------|
Db|-0-3-5--5-3-0--0-3-0--0-3-5--5-3-0--0-3-0---8888-0--0-3-0---|
Ab|-0-3-5--5-3-0--0-3-0--0-3-5--5-3-0--0-3-0---8888-0--0-3-0---|
Db|-0-3-5--5-3-0--0-3-0--0-3-5--5-3-0--0-3-0---8888-0--0-3-0---|

Eb|--------------------------------------------------------------------------------|
Bb|--------------------------------------------------------------------------------|
Gb|--------------------------------------------------------------------------------|
Db|-0-3-5--5-3-0--0-3-0---0-3-5--5-3-0--0-3-0---0-3-5--5-3-0--0-3-0---8x77---0-----|
Ab|-0-3-5--5-3-0--0-3-0---0-3-5--5-3-0--0-3-0---0-3-5--5-3-0--0-3-0---8x77---0-----|
Db|-0-3-5--5-3-0--0-3-0---0-3-5--5-3-0--0-3-0---0-3-5--5-3-0--0-3-0---8x77---0-----|

Eb|--------------------------------------------------------------------------------------|
Bb|--------------------------------------------------------------------------------------|
Gb|--------------------------------------------------------------------------------------|
Db|--------------------------------------------------------------------------------------|
Ab|--------------------------------------------------------------------------------------|
Db|-0-3-0--0-3-5--5-3-0--0-3-0--0-3-5--5-3-0--0-3-0--0-3-5--3-5-0--0-3-0-----------------|

Eb|---------------------------------------------------------------------------------------------|
Bb|---------------------------------------------------------------------------------------------|
Gb|---------------------------------------------------------------------------------------------|
Db|-8x77-------------------------------------------------------------------------------000000---|
Ab|-8x77-------------------------------------------------------------------------------000000---|
Db|-8x77--0--0-3-0---0-3-5--5-3-0--0-3-0---0-3-5--5-3-0--0-3-0---0-3-5--5-3-0--0-3-0---000000---|
                                                                                   [
  ]

Chorus
Eb|----------------------------------------------------------------------------|
Bb|----------------------------------------------------------------------------|
Gb|----------------------------------------------------------------------------|
Db|-7s5-777777777s7-7s3-55555555s8-8-7-0--0-3-0---0-3-5--5-3-0--0-3-0----0-3-5-|
Ab|-7s5-555555555s7-7s3-33333333s8-8-7-0--0-3-0---0-3-5--5-3-0--0-3-0----0-3-5-|
Db|-7s5-555555555s7-7s3-33333333s8-8-7-0--0-3-0---0-3-5--5-3-0--0-3-0----0-3-5-|

Eb|----------------------------------------------------------------------|
Bb|----------------------------------------------------------------------|
Gb|----------------------------------------------------------------------|
Db|-7s5-777777777s7-7s3-55555555s8-8-7-0--0-3-0---0-3-5--5-3-0--0-3-0----|
Ab|-7s5-555555555s7-7s3-33333333s8-8-7-0--0-3-0---0-3-5--5-3-0--0-3-0----|
Db|-7s5-555555555s7-7s3-33333333s8-8-7-0--0-3-0---0-3-5--5-3-0--0-3-0----|

Eb|------------------------------------------------------------|
Bb|------------------------------------------------------------|
Gb|------------------------------------------------------------|
Db|-0-3-5--5-3-0--0-3-0--0-3-5--5-3-0--0-3-0---8888-0--0-3-0---|
Ab|-0-3-5--5-3-0--0-3-0--0-3-5--5-3-0--0-3-0---8888-0--0-3-0---|
Db|-0-3-5--5-3-0--0-3-0--0-3-5--5-3-0--0-3-0---8888-0--0-3-0---|

outro
Eb|----------------------------------------------------------------------------------|
Bb|----------------------------------------------------------------------------------|
Gb|----------------------------------------------------------------------------------|
Db|----------------------------------------------------------------8888-0------------|
Ab|----------------------------------------------------------------8888-0------------|
Db|-0-3-5--5-3-0--0-3-0--0-3-5--5-3-0--0-3-0--0-3-5--5-3-0--0-3-0--8888-0---0-3-0----|
Composição de Jerry Cantrell / Mike Inez / Sean Kinney / William DuVall
2.959 exibições
    • ½ Tom
    • A
    • Bb
    • B
    • C
    • Db
    • D
    • Eb
    • E
    • F
    • F#
    • G
    • Ab
  • Adicionar à lista

    0 comentários

    Ver todos os comentários

    Conseguiu tocar?

    0 Tocaram 0 Ainda não

    Grave um vídeo tocando A Looking In View e nos envie!

    00:00 / 00:00
    outros vídeos desta música
    repetir qualidade Automático
    Outros vídeos desta música
    00:00 / 00:00
    Automático

    Cifra Club Pro

    Aproveite o Cifra Club com benefícios exclusivos e sem anúncios
    Cifra Club Pro
    Aproveite o Cifra Club com benefícios exclusivos e sem anúncios
    OK