Cifra Club

Aprenda

All Secrets Known

Alice In Chains

Cifra: Principal (violão e guitarra)
tom: F#
(intro)
Eb|-------------------------------------------------|
Bb|-------------------------------------------------|
Gb|-7-7-7-7-7-7-7-7-7-7-7-7-8-8-8-8-8-8-8-8-8-8-8-8-|
Db|-0-4-5-0-4-5-0-4-5-0-4-5-0-5-7-0-5-7-0-5-7-0-5-7-|
Ab|-------------------------------------------------|
Db|-------------------------------------------------|
Pm  . . . . . . . . . . . . . . . . . . . . . . . .

Eb|-------------------------------------------------|
Bb|-------------------------------------------------|
Gb|-7-7-7-7-7-7-7-7-7-7-7-7-8-8-8-8-8-8-8-8-8-8-8-8-|
Db|-0-4-5-0-4-5-0-4-5-0-4-5-0-5-7-0-5-7-0-5-7-0-5-7-|
Ab|-------------------------------------------------|
Db|-------------------------------------------------|
Pm  . . . . . . . . . . . . . . . . . . . . . . . .

(guitar 1)
Eb|-------------------------------------------------|
Bb|-------------------------------------------------|
Gb|-7-7-7-7-7-7-7-7-7-7-7-7-8-8-8-8-8-8-8-8-8-8-8-8-|
Db|-0-4-5-0-4-5-0-4-5-0-4-5-0-5-7-0-5-7-0-5-7-0-5-7-|
Ab|-------------------------------------------------|
Db|-------------------------------------------------|
Pm  . . . . . . . . . . . . . . . . . . . . . . . . |
                                                    |
(guitar 2)                                          |
Eb|-------------------------------------------------|
Bb|-------------------------------------------------|
Gb|-------------------------------------------------|
Db|-0-----------------------1-----------------------|
Ab|-0-----------------------1-----------------------|
Db|-0-----------------------1-----------------------|

Eb|-------------------------------------------------------------------------|
Bb|-------------------------------------------------------------------------|
Gb|-10-10-10-10-10-10-10-10-10-10-10-10-12-12-12-12-12-12-12-12-12-12-12-12-|
Db|--0--7--8--0--7--8--0--7--8--0--7--8--0--9-10--0--9-10--0--9-10--0--9-10-|
Ab|-------------------------------------------------------------------------|
Db|-------------------------------------------------------------------------|
Pm   .  .  .  .  .  .  .  .  .  .  .  .  .  .  .  .  .  .

Eb|-------------------------------------------------------------------------|
Bb|-------------------------------------------------------------------------|
Gb|-------------------------------------------------------------------------|
Db|-3------------------------------------5----------------------------------|
Ab|-3------------------------------------5----------------------------------|
Db|-3------------------------------------5----------------------------------|

(verse)
Eb|-------------------------------------------------|
Bb|-------------------------------------------------|
Gb|-7-7-7-7-7-7-7-7-7-7-7-7-8-8-8-8-8-8-8-8-8-8-8-8-|
Db|-0-4-5-0-4-5-0-4-5-0-4-5-0-5-7-0-5-7-0-5-7-0-5-7-|
Ab|-------------------------------------------------|
Db|-------------------------------------------------|
Pm  . . . . . . . . . . . . . . . . . . . . . . . . |
                                                    |  3x
Eb|-------------------------------------------------|
Bb|-------------------------------------------------|
Gb|-------------------------------------------------|
Db|-0-----------------------1-----------------------|
Ab|-0-----------------------1-----------------------|
Db|-0-----------------------1-----------------------|
Pm  .                       .

Eb|-------------------------------------------------|
Bb|-------------------------------------------------|
Gb|-7-7-7-7-7-7-7-7-7-7-7-7-8-8-8-8-8-8-8-8-8-8-8-8-|
Db|-0-4-5-0-4-5-0-4-5-0-4-5-0-5-7-0-5-7-0-5-7-0-5-7-|
Ab|-------------------------------------------------|
Db|-------------------------------------------------|
Pm  . . . . . . . . . . . .                         |
                                                    |
Eb|-------------------------------------------------|
Bb|-------------------------------------------------|
Gb|-------------------------------------------------|
Db|-0-----------------------1---1-1-1-1-1---1-1-1-1-|
Ab|-0-----------------------1-1-1-1-1-1-1-1-1-1-1-1-|
Db|-0-----------------------1-1-1-1-1-1-1-1-1-1-1-1-|

(chorus)
Eb|-------------------------------------------------|
Bb|-------------------------------------------------|
Gb|-7-7-7-7-7-7-7-7-7-7-7-7-8-8-8-8-8-8-8-8-8-8-8-8-|
Db|-0-4-5-0-4-5-0-4-5-0-4-5-0-5-7-0-5-7-0-5-7-0-5-7-|
Ab|-------------------------------------------------|
Db|-------------------------------------------------|
                                                    |
Eb|-------------------------------------------------|
Bb|-------------------------------------------------|
Gb|-------------------------------------------------|
Db|-0---0-0-0-0-0---0-0-0-0-1---1-1-1-1-1---1-1-1-1-|  4x
Ab|-0-0-0-0-0-0-0-0-0-0-0-0-1-1-1-1-1-1-1-1-1-1-1-1-|
Db|-0-0-0-0-0-0-0-0-0-0-0-0-1-1-1-1-1-1-1-1-1-1-1-1-|
                                                    |
Eb|-10tr--------------------------------6tr-------8-|
Bb|-------------10tr--------------------------------|
Gb|-------------------------7-b8--------------------|
Db|-------------------------------------------------|
Ab|-------------------------------------------------|
Db|-------------------------------------------------|

(verse)
(chorus)

(chorus fill)
Eb|-------------------------------------------------------------------------|
Bb|-------------------------------------------------------------------------|
Gb|-10-10-10-10-10-10-10-10-10-10-10-10-12-12-12-12-12-12-12-12-12-12-12-12-|
Db|--0--7--8--0--7--8--0--7--8--0--7--8--0--9-10--0--9-10--0--9-10--0--9-10-|
Ab|-------------------------------------------------------------------------|
Db|-------------------------------------------------------------------------|

Eb|-------------------------------------------------------------------------|
Bb|-------------------------------------------------------------------------|
Gb|-------------------------------------------------------------------------|
Db|--3-----3--3--3--3--3-----3--3--3--3--5-----5--5--5--5--5-----5--5--5--5-|
Ab|--3--3--3--3--3--3--3--3--3--3--3--3--5--5--5--5--5--5--5--5--5--5--5--5-|
Db|--3--3--3--3--3--3--3--3--3--3--3--3--5--5--5--5--5--5--5--5--5--5--5--5-|

Eb|--------------------------------------|
Bb|--------------------------------------|
Gb|-12-12-12-12-12-12-12-12-12-12-12-12--|
Db|--0--9-10--0--9-10--0--9-10--0--9-10--|
Ab|--------------------------------------|
Db|--------------------------------------|
                                         |
Eb|--------------------------------------|
Bb|--------------------------------------|
Gb|--------------------------------------|
Db|--5-----5--5--5--5--5-----5--5--5--5--|
Ab|--5--5--5--5--5--5--5--5--5--5--5--5--|
Db|--5--5--5--5--5--5--5--5--5--5--5--5--|

(bridge)
Eb|--------------------------------------------------3-------------------|
Bb|--------------------------------------------------3-------------------|
Gb|-2-------2-----2-----2------------11-10-----------0------------7-9-10-|
Db|-2-------2-----2-----2----/7-9-10-------7---7---5-----5-7-9-10--------|
Ab|-0-------0-----0-----0------------------------------------------------|
Db|----------------------------------------------------------------------|
                                                                         |  3x
Eb|--------------------------------------------------3-------------------|
Bb|--------------------------------------------------3-------------------|
Gb|-2-------2-----2-----2----------------------------0-------------------|
Db|-2-------2-----2-----2-------------3--2------------------------0-2--3-|
Ab|-0-------0-----0-----0-----0-2--3-------0---0-----------0-2--3--------|
Db|------------------------------------------------5-----5---------------|

Eb|--------------------------------------------------3-------------------|
Bb|--------------------------------------------------3-------------------|
Gb|-2-------2-----2-----2------------11-10-----------0-------------------|
Db|-2-------2-----2-----2----/7-9-10-------7---7---5---------------------|
Ab|-0-------0-----0-----0------------------------------------------------|
Db|----------------------------------------------------------------------|
                                                                         |
Eb|--------------------------------------------------3-------------------|
Bb|--------------------------------------------------3-------------------|
Gb|-2-------2-----2-----2----------------------------0-------------------|
Db|-2-------2-----2-----2-------------3--2-------------------------------|
Ab|-0-------0-----0-----0-----0-2--3-------0---0-------------------------|
Db|------------------------------------------------5---------------------|

(guitar solo) (w/ verse rhythm guitars)
Eb|-------------------------------------------------|
Bb|-------------------------------------------------|
Gb|-------------------------7-/8~-------------------|
Db|-------------------------------------------------|
Ab|-5~----------------------------------------------|
Db|-------------------------------------------------|

Eb|-------------------------------------------------|
Bb|-10~--------------------10-/11~------------------|
Gb|-------------------------7-/-8~------------------|
Db|-------------------------------------------------|
Ab|-------------------------------------------------|
Db|-------------------------------------------------|

Eb|-10/-/18-18p17p15\14h15p14h15h17-15-17-17b18-17b18-p15-16p15p13----------|
Bb|----------------------------------------------------------------16p15p13-|
Gb|-------------------------------------------------------------------------|
Db|-------------------------------------------------------------------------|
Ab|-------------------------------------------------------------------------|
Db|-------------------------------------------------------------------------|

Eb|------------------------------------15----------------|
Bb|-15-b16=r15--------------15-b16========16=r15---------|
Gb|------------------------------------------------14----|
Db|---------------------------------------------------12-|
Ab|------------------------------------------------------|
Db|------------------------------------------------------|
Composição de Jerry Cantrell
Colaboração e revisão:
  • rodrigo
2.405 exibições
    • ½ Tom
    • A
    • Bb
    • B
    • C
    • Db
    • D
    • Eb
    • E
    • F
    • F#
    • G
    • Ab
  • Adicionar à lista

    0 comentários

    Ver todos os comentários

    Conseguiu tocar?

    1 Tocaram 0 Ainda não

    Grave um vídeo tocando All Secrets Known e nos envie!

    00:00 / 00:00
    outros vídeos desta música
    repetir qualidade Automático
    Outros vídeos desta música
    00:00 / 00:00
    Automático

    Cifra Club Pro

    Aproveite o Cifra Club com benefícios exclusivos e sem anúncios
    Cifra Club Pro
    Aproveite o Cifra Club com benefícios exclusivos e sem anúncios
    OK