Cifra Club

Aprenda

Breath On a Window

Alice In Chains

Cifra: Principal (violão e guitarra)
tom: Eb (forma dos acordes no tom de E) Afinação: Eb Ab Db Gb Bb Eb
Intro:
     Rhythm Guitar: E5
|---------------------------------------|
|---7br8-7--7-7-7--7br8-7--7-7-7-7------|
|---------------------------------------| Lead Guitar 2x
|---------------------------------------|
|---------------------------------------|
|---------------------------------------|

Verse:       Info:Had been accompanied by guitar Rhythm:
  Lead Guitar:E5                        F#5 G5  D5  E5
|-----------------------------------------------------|
|---7br8-7--7-7-7--7br8-7--7-7-7-7--------------------|
|-----------------------------------------------------| 4x Rhythm Guitar
|-----------------------------------6/7--7/9--2/4-----|
|--------------------------------------8----10---5----|
|-----------------------------------------------------|

Chorus:
   Lead Guitar:
    A5 Bb5 A5 Bb5  E5 2x  A5 Bb5 A5 C5 G5     D5     A5   E5
|--------------------------------------------------------------------------|
|--------------------------------------------------------------------------|
|-----------2~------------2~-----------------------------------------------| Rhythm Guitar
|---2-3-2-3\------2-3-2-3\------2-3-2-5\0----/12-12-14-14\8b----8b-9-9-----|
|--------------------------------------------------------------------------|
|--------------------------------------------------------------------------|

Verse Again:
  Lead Guitar:E5                        F#5 G5  D5  E5
|-----------------------------------------------------|
|---7br8-7--7-7-7--7br8-7--7-7-7-7--------------------|
|-----------------------------------------------------| 4x Rhythm Guitar
|-----------------------------------6/7--7/9--2/4-----|
|--------------------------------------8----10---5----|
|-----------------------------------------------------|

Chorus Again:
   Lead Guitar:
    A5 Bb5 A5 Bb5  E5 2x  A5 Bb5 A5 C5 G5     D5     A5   E5
|--------------------------------------------------------------------------|
|--------------------------------------------------------------------------|
|-----------2~------------2~-----------------------------------------------| Rhythm Guitar
|---2-3-2-3\------2-3-2-3\------2-3-2-5\0----/12-12-14-14\8b----8b-9-9-----|
|--------------------------------------------------------------------------|
|--------------------------------------------------------------------------|

Third Riff(1/3):
|---0-2-----2------------------|
|------4---4-----0----0-1------|
|---------4-------2------3-----| 4x
|-------2----------2------0----|
|------------------------------|
|------------------------------|

Third Part(2/3)Jerry's singing:
|---0-2-----2------------------|
|------4---4-----0----0-1------|
|---------4-------2------3-----| 8x
|-------2----------2------0----|
|------------------------------|
|------------------------------|

Third Part(3/3)Solo(Rhythm Guitar):
|---0-2-----2------------------|
|------4---4-----0----0-1------|
|---------4-------2------3-----| 8x
|-------2----------2------0----|
|------------------------------|
|------------------------------|

Solo(Lead Guitar):  1,2 and 3 time           4 time
|-------------------------0-2-2-0----|   |---------------------------------------------------------------|
|----------------0-2h3-2~~-----------|   |---0-2-3-------------------------------------------------------|
|---------------------2--------------| 3x|---------2h4-------------------7-------------------------------|
|------------------------------------|   |------------2~---2-4-2-4^5*--9b-----11-------------------------|
|---12b~~----------------------------|   |---------------------------------10b---------------12^13-10~~--|
|------------------------------------|   |--------------------------------------12b(12)5x-12br-----------|

Lesson Riff:

Info:Well, the last riff will be played in chords with the 5th, and remained as the last lesson, the song ends with the sound decreasing along the ground, which goes 2 times riff after being touched yourself:

Last Riff:
     D5         F#5         E5            B5   1 time  2 time         D5      F#5       C#5      E5
|---------------2----2(3x)--0----0(3x)--------------------------------------2--2(3x)-------------------|
|---5----5(3x)--4----4(3x)--2----2(3x)----2----2(3x)--------------5--5(3x)--4--4(3x)--4--4(3x)--7(6x)--|
|---7----7(3x)--4----4(3x)--2----2(3x)----4----4(3x)--2h4---------7--7(3x)--4--4(3x)--6--6(3x)--9(6x)--|2x
|---7----7(3x)----------------------------4----4(3x)-----2-4^5-2--7--7(3x)------------6--6(3x)--9(6x)--|
|------------------------------------------------------------------------------------------------------|
|------------------------------------------------------------------------------------------------------|

     D5         F#5         E5            B5   1 time  2 time         D5      F#5       C#5      E5
|---------------2----2(3x)--0----0(3x)--------------------------------------2--2(3x)-------------------|
|---5----5(3x)--4----4(3x)--2----2(3x)----2----2(3x)--------------5--5(3x)--4--4(3x)--4--4(3x)--7(6x)--|
|---7----7(3x)--4----4(3x)--2----2(3x)----4----4(3x)--2h4---------7--7(3x)--4--4(3x)--6--6(3x)--9(6x)--|6x
|---7----7(3x)----------------------------4----4(3x)-----2-4^5-2--7--7(3x)------------6--6(3x)--9(6x)--|
|------------------------------------------------------------------------------------------------------|
|------------------------------------------------------------------------------------------------------|

Solo:   1 Part
|-------------------------------------------------------|
|-------------------------------------------------------|
|-------------------------------------------------------|
|-----------------------------------14/16--16-----------|
|----------------------------------------17--19b-19~----|
|---17/19-17-16h17-16-14-13h14-13-12~-------------------|

        2 Part
|-----------------------------------------------------------------------------|
|-----------------------------------------------------------------------------|
|-----------------------------------------------------------------------------|
|-----------------------------------------------------------------------------|
|---------------------------------------12/14--14---------------12^13-10~~----|
|---17/19-17-16h17-16-14-13h14-13-12~--------12---12b(12)5x-12br--------------|
Composição de Jerry Cantrell / William Duvall
Colaboração e revisão:
  • Gustavo Muniz
806 exibições
    • ½ Tom
    • A
    • Bb
    • B
    • C
    • Db
    • D
    • Eb
    • E
    • F
    • F#
    • G
    • Ab
  • Adicionar à lista

    0 comentários

    Ver todos os comentários

    Conseguiu tocar?

    0 Tocaram 0 Ainda não

    Grave um vídeo tocando Breath On a Window e nos envie!

    00:00 / 00:00
    outros vídeos desta música
    repetir qualidade Automático
    Outros vídeos desta música
    00:00 / 00:00
    Automático

    Cifra Club Pro

    Aproveite o Cifra Club com benefícios exclusivos e sem anúncios
    Cifra Club Pro
    Aproveite o Cifra Club com benefícios exclusivos e sem anúncios
    OK