Cifra Club

Aprenda

Down In A Hole

Alice In Chains

Cifra: Principal (violão e guitarra)
tom: B (forma dos acordes no tom de C) Afinação: Eb Ab Db Gb Bb Eb
[Intro] Am  G  D 
        Am  G  D 
        Am  G  D 
        Am  G  D 

     Am               G        D
E|--------------------3--------2----------------------|
B|--0h1--------1--------3--------3--------------------|
G|------2--------2--------0--------2------------------|
D|--------2--------2-----------0-----0----------------| (4x)
A|--0-------0-----------------------------------------|
E|--------------------3-------------------------------|

[Primeira Parte]

     Am               G        D
E|--------------------3--------2----------------------|
B|--0h1--------1--------3--------3--------------------|
G|------2--------2--------0--------2------------------|
D|--------2--------2-----------0-----0----------------| (4x)
A|--0-------0-----------------------------------------|
E|--------------------3-------------------------------|

 Am      G     D        Am  G  D
Bury me softly in this womb 
Am           G       D      
I give this part of me for you
 Am                  G      D
Sand rains down and here I sit
 Am            G      
Holding rare flowers
D       Am  G  D
In her tomb
     Am  G  D 
In bloom

[Refrão]

    Am                 G          D 
E|---------------------3-3-3------2-2-2---------------|
B|---------------------3-3-3------3-3-3---------------|
G|---------------------0-0-0------2-2-2---------------|
D|--9-10-9-7--7-7------0-0-0------0-0-0---------------| (8x)
A|--0-0--0-0--0-0------x-x-x--------------------------|
E|---------------------3-3-3--------------------------|

 Am                          G     D         Am   G  D
Down in a hole and I don't know if I can be saved
 Am              G           D       Am  G  D
See my heart, I decorate it like a grave
     Am              
You don't understand who they
  G            D           Am  G D
Thought I was supposed to be
 Am
Look at me now
       G             D             Am  G  D 
I'm a man who won't let himself be

[Segunda Parte]

     Dm               C5(9)      G
E|--------------------0-----0----0--0----------------|
B|--------------------3-------3--3----3--------------|
G|--9-10-9-7--7-7-----0----------0------0------------|
D|--0-0--0-0--0-0-----0----------0-------------------| (4x)
A|--------------------3----------2-------------------|
E|-------------------------------3-------------------|

 Dm            C5(9)  G
Down in a hole 
 Dm            C5(9)  G
Losin' my soul
 Dm            C5(9)  G
Down in a hole
 Dm               C5(9)  G
Losin' my contyol

[Terceira Parte]

    D5 E5 F5 C5          G5         Ab5 G5   F5    A5
E|---------------------------------------------------|
B|--3------------------------------------------------|
G|--2----------------------------------------------2-|
D|--0--------5--5--5-5-5---------------------------2-|
A|-----2--3--3--3--3-3-3-5-5--5-5-5-5/6-5-3--3-3-5-0-|
E|-----0--1--------------3-3--3-3-3-3/4-3-1--1-1-3---|
 
D5   E5   F5  C5  G5
I'd like to fly
 G5  Ab5  G5         F5         A5
But my   wings have been so denied

( Am  G  D )
( Am  G  D )

[Terceira Parte]
 
 Am                         G  
Down in a hole and they've put all
      D               Am  G  D            
The stones in their place
     Am                   G
I've eaten the sun so my tongue
          D             Am   G  D
Has been burned of the taste
Am            
I have been guilty
    G         D           Am   G  D
Of kicking myself in the teeth
Am               G  
I will speak no more
       D           Am  G  D
of my feelings beneath

[Segunda Parte]

 Dm            C5(9)  G
Down in a hole 
 Dm            C5(9)  G
Losin' my soul
 Dm            C5(9)  G
Down in a hole
 Dm               C5(9)  G
Losin' my contyol

[Terceira Parte]

D5   E5   F5  C5  G5
I'd like to fly
 G5  Ab5  G5         F5         A5
But my   wings have been so denied

( Am  G  D )
( Am  G  D )

[Quarta Parte]

 Am      G     D        Am   G  D 
Bury me softly in this womb      (Oh I wanna be inside of you)
Am       G   D              Am   G  D
I give this part of me for you        (Oh I wanna be inside of you)
 Am                  G      D  
Sand rains down and here I sit (Oh I wanna be inside of you)
 Am            G     D
Holding rare flowers
 Am                G          D
In a tomb... In bloom...Oh I want to be inside

[Segunda Parte]

 Dm            C5(9)  G
Down in a hole 
 Dm            C5(9)  G
Losin' my soul
 Dm            C5(9)  G
Down in a hole
 Dm               C5(9)  G
Losin' my contyol

 Dm            C5(9)  G
Down in a hole 
 Dm            C5(9)  G
Losin' my soul
 Dm            C5(9)  G
Down in a hole
 Dm               C5(9)  G
Losin' my contyol

[Terceira Parte]
 
D5   E5   F5  C5  G5
I'd like to fly
 G5  Ab5  G5         F5         A5
But my   wings have been so denied

( Am  G  D )
( Am  G  D )
( Am  G  D )
( Am  G  D )
Composição de Jerry Cantrell
Colaboração e revisão:
128.789 exibições
    • ½ Tom
    • A
    • Bb
    • B
    • C
    • Db
    • D
    • Eb
    • E
    • F
    • F#
    • G
    • Ab
  • Adicionar à lista

    0 comentários

    Ver todos os comentários

    Conseguiu tocar?

    21 Tocaram 2 Ainda não

    Grave um vídeo tocando Down In A Hole e nos envie!

    00:00 / 00:00
    outros vídeos desta música
    repetir qualidade Automático
    Outros vídeos desta música
    00:00 / 00:00
    Automático

    Cifra Club Pro

    Aproveite o Cifra Club com benefícios exclusivos e sem anúncios
    Cifra Club Pro
    Aproveite o Cifra Club com benefícios exclusivos e sem anúncios
    OK