Enviar cifraEntrar

Down In A Hole

Alice In Chains

Cifra: Principal
exibições 96.206
Tom: C Afinação: Eb Ab Db Gb Bb Eb

Afinação: Eb Ab Db Gb Bb eb

Intro: 
 

      Am                       G5     D
Eb|--------------------3------2--------|
Bb|--0h1--------1--------3------3------|
Gb|------2--------2--------0------2----|
Db|--------2--------2---------0-----0--|(4x)
Ab|--0-------0-------------------------|
Eb|--------------------3---------------|


Riff: Na quarta vez que fizer a intro.


Eb|-------------------------------------|
Bb|-------------------------------------|
Gb|--11b12--9-11-9~--7-9-7~--4-5b7r5-0--|
Db|-------------------------------------| 
Ab|-------------------------------------|
Eb|-------------------------------------|



Versos:


      Am                       G5     D
Eb|--------------------3------2--------|
Bb|--0h1--------1--------3------3------|
Gb|------2--------2--------0------2----| 
Db|--------2--------2---------0-----0--|
Ab|--0-------0-------------------------|
Eb|--------------------3---------------|



Refrão:

Parte 1:

                     G5     D
Eb|-----------------3-3-3--2-2-2--|
Bb|-----------------3-3-3--3-3-3--|
Gb|-----------------0-0-0--2-2-2--| 
Db|--9-10-9-7--7-7--0-0-0--0-0-0--|(4x)
Ab|--0-0--0-0--0-0--x-x-x---------|
Eb|-----------------3-3-3---------|


Parte 2:

                     C5(9)   G5
Eb|-----------------x--0----x--0------|
Bb|-----------------3----3--x----3----|
Gb|--9-10-9-7--7-7--0-------0------0--| 
Db|--0-0--0-0--0-0--0-------0---------|(4x)
Ab|-----------------3-------x---------|
Eb|-------------------------3---------|


Parte 3:

      D5 E5 F5 C5          G5         Ab5 G5   F5    A5
Eb|----------------------------------------------------|
Bb|--3-------------------------------------------------|
Gb|--2----------------------------------------------2--| 
Db|--0--------5--5--5-5-5---------------------------2--|
Ab|-----2--3--3--3--3-3-3-5-5--5-5-5-5-6-5-3--3-3-5-0--|
Eb|-----0--1--------------3-3--3-3-3-3/4-3-1--1-1-3----|

     ↓  ↓  ↓  ↓  ↓  ↓ ↑ ↓ ↓ ↓  ↓ ↓ ↓ ↓   ↓ ↓  ↓ ↓ ↓ ↓

Solo Final:


Eb|-----------------------------------------------------------0--|
Bb|------------------------------------5-----8b10r8b10r8~~----1--|
Gb|-------------5-5------5-7-7b9r7p5---5---5------------------2--| 
Db|--7p5-7--5h7------5h7-------------7------------------------2--|
Ab|-----------------------------------------------------------0--|
Eb|--------------------------------------------------------------|


--------------------Letra--------------------


              (Intro)
(vocalização) Uuuuuuuhhhhhuuuuu!!!  

(Versos)
Bury me softly in this womb
I give this part of me for you
Sand rains down and here I sit
Holding rare flowers
In her tomb... In bloom

Refrão:

(Parte 1) 
Down in a hole and I don't know if I can be saved
See my heart, I decorate it like a grave
You don't understand who they
Thought I was supposed to be
Look at me now
I'm a man who won't let himself be

(Parte 2)
Down in a hole, feelin' so small
Down in a hole, losin' my soul

(Parte 3) 
I'd like to fly,
But my wings have been so denied

(Parte 1)
Down in a hole and they've put all
The stones in their place
I've eaten the sun so my tongue
Has been burned of the taste
I have been guilty
Of kicking myself in the teeth
I will speak no more
of my feelings beneath

(Parte 2)
Down in a hole, feelin' so small
Down in a hole, losin' my soul

(Parte 3)
I'd like to fly,
But my wings have been so denied

(Versos)
Bury me softly in this womb (Oh I wanna be inside of you)
I give this part of me for you (Oh I wanna be inside of you)
Sand rains down and here I sit (Oh I wanna be inside of you)
Holding rare flowers
In a tomb... In bloom...Oh I want to be inside

(Parte 2)
Down in a hole, feeling so small
Down in a hole, losing my soul
Down in a hole, feeling so small
Down in a hole, out of control

(Parte 3)
I'd like to fly, but my
Wings have been so denied

(Solo Final)

Am  G5 D  Am G5 D  Am


----------------- Acordes -----------------

Am: X 0 2 2 1 0
G5: 3 X 0 0 3 3 OU 3 1 X X X X OU 3 X 0 0 X X
D: X X 0 2 3 2
C5(9): X 3 0 0 3 X
D5: X X 0 2 3 X
E5: 0 2 X X X X
F5: 1 3 X X X X
C5: X 3 5 X X X
Ab5: 4 6 X X X X
A5: X 0 2 2 X X
  • 1
  • 2
  • 3
  • 4
  • 5
  • 6
  • 7
  • 8
  • 9
  • 10
  • 11
  • 12
    Acordes para:
      Composição: Jerry CantrellColaboração e revisão:

      0 comentários

        mostrar mais comentários

        Conseguiu tocar?

        14tocaram0ainda não

        Grave um vídeo tocando Down In A Hole e mande pra gente!

        00:00 / 00:00
        outros vídeos desta música
        repetirqualidadeautomática
        • automática
        Outro vídeos desta música
          00:00 / 00:00
          automática
          • automática
          3 versões de Tab de baixoexibiçõescontribuições
          2 versões de Tab de bateriaexibiçõescontribuições
          fecharplay/pause subir/descer velocidade
            acordes
            fechar
            OK
            Feedback