Cifra Club

Drone

Alice In Chains

Cifra: Principal (violão e guitarra)
Selo Cifra Club: esta cifra foi revisada para atender aos critérios oficiais da nossa Equipe de Qualidade.
tom: Bm
E|--------------------------------------------------|
B|--------------------------------------------------|
G|--------------------------------------------------|
D|---------------2----------------------------------|
A|---------------------------4-----------3--2--0----|
E|---2--0h2p0h2-----0h2p0h2-----0h2p0h2-------------|

E|--------------------------------------------------|
B|--------------------------------------------------|
G|---------------2b---------------------------------|
D|----------------------------2---------------------|
A|----------------------------------------3--2--0---|
E|---2--0h2p0h2------0h2p0h2-----0h2p0h2------------|

E|--------------------------------------------------|
B|--------------------------------------------------|
G|--------------------------------------------------|
D|---------------2----------------------------------|
A|---------------------------4-----------3--2--0----|
E|---2--0h2p0h2-----0h2p0h2-----0h2p0h2-------------|

E|--------------------------------------------------|
B|--------------------------------------------------|
G|--------------------------------------------------|
D|---------------4----------------------------------|
A|---------------------------4-----------3--2--0----|
E|---2--0h2p0h2-----0h2p0h2-----0h2p0h2-------------|


[Verse 1]

E|---------------------------------|
B|---------------------------------|
G|---------------------------------|
D|---------------------------------| x4
A|---4----0h4----0h4----3--2--0----|
E|---2----0h2----0h2---------------|


[Pre-Chorus]

E|--------------------------------------------------|
B|--------------------------------------------------|
G|--------------------------------------------------|
D|---------------2----------------------------------|
A|---------------------------4-----------3--2--0----|
E|---2--0h2p0h2-----0h2p0h2-----0h2p0h2-------------|

E|--------------------------------------------------|
B|--------------------------------------------------|
G|---------------2b---------------------------------|
D|----------------------------2---------------------|
A|----------------------------------------3--2--0---|
E|---2--0h2p0h2------0h2p0h2-----0h2p0h2------------|

E|--------------------------------------------------|
B|--------------------------------------------------|
G|--------------------------------------------------|
D|---------------2----------------------------------|
A|---------------------------4-----------3--2--0----|
E|---2--0h2p0h2-----0h2p0h2-----0h2p0h2-------------|

E|--------------------------------|
B|--------------------------------|
G|--------------------------------|
D|---------------4----------------|
A|---------------------------4----|
E|---2--0h2p0h2-----0h2p0h2-------|


[Chorus]

E|--------------------------------------------------------------|
B|--------------------------------------------------------------|
G|---5--5--5--5\4------------------------5--5--5--5\4------4\---|
D|---5--5--5--5\4------5--5--5--5\4------5--5--5--5\4------4\---|
A|---3--3--3--3\2------5--5--5--5\4------3--3--3--3\2------2\---|
E|---3--3--3--3\2------3--3--3--3\2------3--3--3--3\2------2\---|

E|--------------------------------------------------|
B|--------------------------------------------------|
G|--------------------------------------------------|
D|---------------2----------------------------------|
A|---------------------------4-----------3--2--0----|
E|---2--0h2p0h2-----0h2p0h2-----0h2p0h2-------------|

E|--------------------------------------------------|
B|--------------------------------------------------|
G|---------------2b---------------------------------|
D|----------------------------2---------------------|
A|----------------------------------------3--2--0---|
E|---2--0h2p0h2------0h2p0h2-----0h2p0h2------------|

E|--------------------------------------------------|
B|--------------------------------------------------|
G|--------------------------------------------------|
D|---------------2----------------------------------|
A|---------------------------4-----------3--2--0----|
E|---2--0h2p0h2-----0h2p0h2-----0h2p0h2-------------|

E|--------------------------------------------------|
B|--------------------------------------------------|
G|--------------------------------------------------|
D|---------------4----------------------------------|
A|---------------------------4-----------3--2--0----|
E|---2--0h2p0h2-----0h2p0h2-----0h2p0h2-------------|


[Verse 2]

E|---------------------------------|
B|---------------------------------|
G|---------------------------------|
D|---------------------------------| x4
A|---4----0h4----0h4----3--2--0----|
E|---2----0h2----0h2---------------|


[Pre-Chorus]

E|--------------------------------------------------|
B|--------------------------------------------------|
G|--------------------------------------------------|
D|---------------2----------------------------------|
A|---------------------------4-----------3--2--0----|
E|---2--0h2p0h2-----0h2p0h2-----0h2p0h2-------------|

E|--------------------------------------------------|
B|--------------------------------------------------|
G|---------------2b---------------------------------|
D|----------------------------2---------------------|
A|----------------------------------------3--2--0---|
E|---2--0h2p0h2------0h2p0h2-----0h2p0h2------------|

E|--------------------------------------------------|
B|--------------------------------------------------|
G|--------------------------------------------------|
D|---------------2----------------------------------|
A|---------------------------4-----------3--2--0----|
E|---2--0h2p0h2-----0h2p0h2-----0h2p0h2-------------|

E|--------------------------------|
B|--------------------------------|
G|--------------------------------|
D|---------------4----------------|
A|---------------------------4----|
E|---2--0h2p0h2-----0h2p0h2-------|


[Chorus]

E|--------------------------------------------------------------|
B|--------------------------------------------------------------|
G|---5--5--5--5\4------------------------5--5--5--5\4------4\---|
D|---5--5--5--5\4------5--5--5--5\4------5--5--5--5\4------4\---|
A|---3--3--3--3\2------5--5--5--5\4------3--3--3--3\2------2\---|
E|---3--3--3--3\2------3--3--3--3\2------3--3--3--3\2------2\---|


[Bridge] - Electric and Acoustic parts are played 2 times

E|----------------------------------------------------------------------------|
B|----------------------------------------------------------------------------|
G|----------------------------------------------------------------------------|
D|----------------------------------------------------------------------------| [Electric]
A|------------------------------7--------6------------------------------------|
E|---2--------4--------5--------------------------7--------5--------7---------|
  |
E|------------------------------------7--------7--------7--------7--------7---|
B|---------7--------7--------7-----7--------7--------7--------7--------7------|
G|------6--------6--------6-----9--------8------------------------------------|
D|---4--------6--------7--------------------------9--------7--------9---------| [Acoustic]
A|----------------------------------------------------------------------------|
E|----------------------------------------------------------------------------|

E|----------------------------------------------------------------------------|
B|----------------------------------------------------------------------------|
G|----------------------------------------------------------------------------|
D|----------------------------------------------------------------------------| [Electric]
A|------------------------------7--------6------------------------------------|
E|---2--------4--------5--------------------------7--------5--------4b--------|
  |
E|------------------------------------7--------7--------7--------7------------|
B|---------7--------7--------7-----7--------7--------7--------7---------------|
G|------6--------6--------6-----9--------8------------------------------------|
D|---4--------6--------7--------------------------9--------7--------6b--------| [Acoustic]
A|----------------------------------------------------------------------------|
E|----------------------------------------------------------------------------|

E|----------------------------------------------------------------------------|
B|----------------------------------------------------------------------------|
G|----------------------------------------------------------------------------|
D|----------------------------------------------------------------------------| [Electric]
A|------------------------------7--------6------------------------------------|
E|---2--------4--------5--------------------------7--------5--------7---------|
  |
E|------------------------------------7--------7--------7--------7--------7---|
B|---------7--------7--------7-----7--------7--------7--------7--------7------|
G|------6--------6--------6-----9--------8------------------------------------|
D|---4--------6--------7--------------------------9--------7--------9---------| [Acoustic]
A|----------------------------------------------------------------------------|
E|----------------------------------------------------------------------------|

E|----------------------------------------------------------------------------|
B|----------------------------------------------------------------------------|
G|----------------------------------------------------------------------------|
D|----------------------------------------------------------------------------| [Electric]
A|------------------------------7--------6------------------------------------|
E|---2--------4--------5--------------------------7--------5--------4b--------|
  |
E|------------------------------------7--------7--------7--------7------------|
B|---------7--------7--------7-----7--------7--------7--------7---------------|
G|------6--------6--------6-----9--------8------------------------------------|
D|---4--------6--------7--------------------------9--------7--------6b--------| [Acoustic]
A|----------------------------------------------------------------------------|
E|----------------------------------------------------------------------------|


[Solo] - Rhythm

E|----------------------------------------------------------------------------|
B|----------------------------------------------------------------------------|
G|----------------------------------------------------------------------------|
D|----------------------------------------------------------------------------| [Electric]
A|------------------------------7--------6------------------------------------|
E|---2--------4--------5--------------------------7--------5--------7---------|
  |
E|------------------------------------7--------7--------7--------7--------7---|
B|---------7--------7--------7-----7--------7--------7--------7--------7------|
G|------6--------6--------6-----9--------8------------------------------------|
D|---4--------6--------7--------------------------9--------7--------9---------| [Acoustic]
A|----------------------------------------------------------------------------|
E|----------------------------------------------------------------------------|

E|----------------------------------------------------------------------------|
B|----------------------------------------------------------------------------|
G|----------------------------------------------------------------------------|
D|----------------------------------------------------------------------------| [Electric]
A|------------------------------7--------6------------------------------------|
E|---2--------4--------5--------------------------7--------5--------4b--------|
  |
E|------------------------------------7--------7--------7--------7------------|
B|---------7--------7--------7-----7--------7--------7--------7---------------|
G|------6--------6--------6-----9--------8------------------------------------|
D|---4--------6--------7--------------------------9--------7--------6b--------| [Acoustic]
A|----------------------------------------------------------------------------|
E|----------------------------------------------------------------------------|

E|----------------------------------------------------------------------------|
B|----------------------------------------------------------------------------|
G|----------------------------------------------------------------------------|
D|----------------------------------------------------------------------------| [Electric]
A|------------------------------7--------6------------------------------------|
E|---2--------4--------5--------------------------7--------5--------7---------|
  |
E|------------------------------------7--------7--------7--------7--------7---|
B|---------7--------7--------7-----7--------7--------7--------7--------7------|
G|------6--------6--------6-----9--------8------------------------------------|
D|---4--------6--------7--------------------------9--------7--------9---------| [Acoustic]
A|----------------------------------------------------------------------------|
E|----------------------------------------------------------------------------|

E|----------------------------------------------------------------------------|
B|----------------------------------------------------------------------------|
G|----------------------------------------------------------------------------|
D|----------------------------------------------------------------------------| [Electric]
A|------------------------------7--------6------------------------------------|
E|---2--------4--------5--------------------------7--------5--------4b--------|
  |
E|------------------------------------7--------7--------7--------7------------|
B|---------7--------7--------7-----7--------7--------7--------7---------------|
G|------6--------6--------6-----9--------8------------------------------------|
D|---4--------6--------7--------------------------9--------7--------6b--------| [Acoustic]
A|----------------------------------------------------------------------------|
E|----------------------------------------------------------------------------|

E|-----------------------------|
B|-----------------------------|
G|---6------4------4--2--------|
D|---6------4------4--2----4---| [Electric]
A|---4------2------2--0----4---|
E|---4------2------2--0----2---|


[Verse 3]

E|---------------------------------|
B|---------------------------------|
G|---------------------------------|
D|---------------------------------| x4
A|---4----0h4----0h4----3--2--0----|
E|---2----0h2----0h2---------------|


[Pre-Chorus]

E|--------------------------------------------------|
B|--------------------------------------------------|
G|--------------------------------------------------|
D|---------------2----------------------------------|
A|---------------------------4-----------3--2--0----|
E|---2--0h2p0h2-----0h2p0h2-----0h2p0h2-------------|

E|--------------------------------------------------|
B|--------------------------------------------------|
G|---------------2b---------------------------------|
D|----------------------------2---------------------|
A|----------------------------------------3--2--0---|
E|---2--0h2p0h2------0h2p0h2-----0h2p0h2------------|

E|--------------------------------------------------|
B|--------------------------------------------------|
G|--------------------------------------------------|
D|---------------2----------------------------------|
A|---------------------------4-----------3--2--0----|
E|---2--0h2p0h2-----0h2p0h2-----0h2p0h2-------------|

E|--------------------------------|
B|--------------------------------|
G|--------------------------------|
D|---------------4----------------|
A|---------------------------4----|
E|---2--0h2p0h2-----0h2p0h2-------|


[Chorus]

E|--------------------------------------------------------------|
B|--------------------------------------------------------------|
G|---5--5--5--5\4------------------------5--5--5--5\4------4\---|
D|---5--5--5--5\4------5--5--5--5\4------5--5--5--5\4------4\---|
A|---3--3--3--3\2------5--5--5--5\4------3--3--3--3\2------2\---|
E|---3--3--3--3\2------3--3--3--3\2------3--3--3--3\2------2\---|


[Outro]

E|---------------------------------|
B|---------------------------------|
G|---------------------------------|
D|---------------------------------| x12
A|---4----0h4----0h4----3--2--0----|
E|---2----0h2----0h2---------------|


************************************

| h   Hammer-on
| p   Pull-off
| b   Bend
| \   Slide down
Outros vídeos desta música
    33 exibições
      • ½ Tom
      • Am
      • Bbm
      • Bm
      • Cm
      • C#m
      • Dm
      • Ebm
      • Em
      • Fm
      • F#m
      • Gm
      • G#m
    • Adicionar à lista

    Afinação da cifra

    Afinador online

      0 comentários

      Ver todos os comentários

      Entre para o Cifra Club PRO

      Tenha acesso a benefícios exclusivos no App e no Site

      • Chega de anúncios

      • Mais recursos no app do Afinador

      • Atendimento Prioritário

      • Aumente seu limite de lista

      • Ajude a produzir mais conteúdo

      Cifra Club Pro

      Aproveite o Cifra Club com benefícios exclusivos e sem anúncios
      Cifra Club Pro
      Aproveite o Cifra Club com benefícios exclusivos e sem anúncios
      OK