Cifra Club

Aprenda

Hollow

Alice In Chains

Cifra: Principal (violão e guitarra)
tom: Ab (forma dos acordes no tom de A) Afinação: Eb Ab Db Gb Bb Eb
Riff:
|-------------------------|
|------3------------------|
|-------------------------|x8
|--0-3----3-2-0-2-0-1-----|
|--0-3----3-2-0-2-0-1-----|
|--0-3----3-2-0-2-0-1-----|
PM            .   .

|-----------------------|
|-----------------------|
|---7/10---14---7-------|x4
|-----------------------|
|---5/-8---12---5-------|
|-----------------------|

Verse:
|------------------------|
|------------------------|
|------------------------|x12
|--0-3---3-2-0-2-0-1-----|
|--0-3---3-2-0-2-0-1-----|
|--0-3---3-2-0-2-0-1-----|
PM ...   ...........

 w/wah
|---------------------------------------|
|---------------------------------------|
|---5/7-----------5---------------------|x3
|---------------------------------------|
|---3/5-----------3---------------------|
|--------------------------3b`----------|

Chorus:
|----------------------------|
|----------------------------|
|----------------------------|x4
|---5/8---8-7-5-7-5--6-------|
|----------------------------|
|---5/8---8-7-5-7-5--6-------|

Riff

Verse

                                   x2
|---------------------------------------|------------------------------|
|---------------------------------------|------------------------------|
|---5/7-----------5---------------------|---5/7------------5-----------|
|---------------------------------------|-------------------------4b---|
|---3/5-----------3---------------------|---3/5------------3-----------|
|--------------------------3b`----------|------------------------------|

Chorus

Post Chorus:
|--------0-----1----------------------|
|-----3----3--------------------------|
|-----2------2----3-3-3-3-3-3---------|x8
|--0--0-----------3-3-3-3-3-3---------|
|--0--0-----------1-1-1-1-1-1---------|
|--0--0------------------------3b`----|

|--/14--10--15--10--/14--10--15--10---10--14h15-17-18--17-17-15-15-17-15-14------/22-22-22-22--|
|----------------------------------------------------------------------------------------------|
|----------------------------------------------------------------------------------------------|
|----------------------------------------------------------------------------------------------|
|----------------------------------------------------------------------------------------------|
|----------------------------------------------------------------------------------------------|

                     
|-----------------------|-----20---19br----|
|-----------8-----------|------------------|
|---5-------7-----------|------------------|
|---5-------5-----------|------------------|
|---3-------5-----------|------------------|
|-----------5-----------|------------------|

Solo:
|-------------------------------------------------------------------------------------|
|-------------------------------------------------------------------------------------|
|--------7------------------------7--------------------------7-------------------7~---|
|----------0---5h7-/10-9-8~---------0---5h7--------------------0---5h7-/10-9-8-7------|
|---/5-8---------------------/5-8-----------8b`--10-5~--/5-8--------------------------|
|-------------------------------------------------------------------------------------|

|-----------------------------------------------------------------------------|
|------------------------------------20br-----17br-----15b--(15-15-15-15)r----|
|--12b----r-10h12p10-9h10p9-7~---/15-------14-------13------------------------|
|-----------------------------------------------------------------------------|
|-----------------------------------------------------------------------------|
|-----------------------------------------------------------------------------|

|-------------------------------------------------|
|--13-14-15-13-14-13------------------------------|
|---------------------14~-------------------------|
|-----------------------------5b-------------r----|
|-------------------------------------------------|
|-------------------------------------------------|

Verse

Chorus

Post Chorus

Riff

Composição de Alice In Chains
2.329 exibições
    • ½ Tom
    • A
    • Bb
    • B
    • C
    • Db
    • D
    • Eb
    • E
    • F
    • F#
    • G
    • Ab
  • Adicionar à lista

    0 comentários

    Ver todos os comentários

    Conseguiu tocar?

    0 Tocaram 0 Ainda não

    Grave um vídeo tocando Hollow e nos envie!

    00:00 / 00:00
    outros vídeos desta música
    repetir qualidade Automático
    Outros vídeos desta música
    00:00 / 00:00
    Automático

    Cifra Club Pro

    Aproveite o Cifra Club com benefícios exclusivos e sem anúncios
    Cifra Club Pro
    Aproveite o Cifra Club com benefícios exclusivos e sem anúncios
    OK