Cifra Club

Red Giant

Alice In Chains

Cifra: Principal (violão e guitarra)
Selo Cifra Club: esta cifra foi revisada para atender aos critérios oficiais da nossa Equipe de Qualidade.
tom: Am
E|---------------------------------|
B|---------------------------------|
G|---------------------------------|
D|---------------------------------| x8
A|--0--3h5p3--0--0--1p0-----1------|
E|--0--0-0-0--0--0--0-0--0--0------|

{Gtr 2}

E|--------------------------------------|
B|-------------------10--9--6--9b9b-----|
G|--10--9--7--9b9b7---------------------|
D|--------------------------------------|
A|--------------------------------------|
E|--------------------------------------|


[Verse 1] (0:36)

E|---------------------------------------------------------------------------|
B|---------------------------------------------------------------------------|
G|---------------------------------------------------------------------------|
D|---------------------------------------------------------------------------| x2
A|--0--0--1--0--0-----3--------3~--0--0--1--0--0-----5--------5~-------------|
E|--0--0--1--0--0--0-----0--0------0--0--1--0--0--0-----0--0-----------------|

[Pre-Chorus] (0:49)

E|-------------------------------------------------------------------|
B|-------------------------------------------------------------------|
G|-------------------------------------------------------------------|
D|-------------------------------------------------------------------|
A|--3--3h5p3--1--0----1--0-----1--0--5--5--5-5--3--3--5p3--3---------|
E|--3--3-3-3--------3-------3--------5--5--5h7--3--3-------3--3h5----|

E|-------------------------------|
B|-------------------------------|
G|-------------------------------|
D|-------------------------------| x2
A|--0--3h5p3--0--0--1p0-----1----|
E|--0--0-0-0--0--0--0-0--0--0----|

E|-------------------------------------------------------------------|
B|-------------------------------------------------------------------|
G|-------------------------------------------------------------------|
D|-------------------------------------------------------------------|
A|--3--3h5p3--1--0----1--0-----1--0--5--5--5-5--3--3--5p3--3---------|
E|--3--3-3-3--------3-------3--------5--5--5h7--3--3-------3--3h5----|

E|----------------------------------------|
B|----------------------------------------|
G|----------------------------------------|
D|----------------------------------------|
A|--0--3h5p3--0--0--1p0-----1--0--3h5p3---|
E|--0--0-0-0--0--0--0-0--0--0--0--3-0-0---|


[Chorus] (1:11)

E|--------------------------------|
B|--------------------------------|
G|--------------------------------|
D|--10----------------------------|
A|--8--10--8-----8--3-----5--8----|
E|-----10--8-----8--3-----5--8----|

E|----------------------------------------|
B|----------------------------------------|
G|----------------------------------------|
D|----------------------------------------|
A|--0--3h5p3--0--0--1p0-----1--0--3h5p3---|
E|--0--0-0-0--0--0--0-0--0--0--0--3-0-0---|

E|--------------------------------|
B|--------------------------------|
G|--------------------------------|
D|--10----------------------------|
A|--8--10--8-----8--3-----5--8----|
E|-----10--8-----8--3-----5--8----|


[Interlude] (1:31) {Gtr 1}

E|-------------------------------|
B|-------------------------------|
G|-------------------------------|
D|-------------------------------| x4
A|--0--3h5p3--0--0--1p0-----1----|
E|--0--0-0-0--0--0--0-0--0--0----|

           (1:37) {Gtr 2}
E|----------------------------------------------------------------|
B|--------------------------------1-----1-------------------3-----|
G|----------------------2--5--5b-----2---------0------------2-----|
D|----------------3--5---------------------3-------3--2--3--0-----|
A|----------3--5--------------------------------------------------|
E|--0--3/5--------------------------------------------------------|


 [Verse 2] (1:55)

E|---------------------------------------------------------------------------|
B|---------------------------------------------------------------------------|
G|---------------------------------------------------------------------------|
D|---------------------------------------------------------------------------| x2
A|--0--0--1--0--0-----3--------3~--0--0--1--0--0-----5--------5~-------------|
E|--0--0--1--0--0--0-----0--0------0--0--1--0--0--0-----0--0-----------------|


[Pre-Chorus 2](2:07)

E|-------------------------------------------------------------------|
B|-------------------------------------------------------------------|
G|-------------------------------------------------------------------|
D|-------------------------------------------------------------------|
A|--3--3h5p3--1--0----1--0-----1--0--5--5--5-5--3--3--5p3--3---------|
E|--3--3-3-3--------3-------3--------5--5--5h7--3--3-------3--3h5----|

E|-------------------------------|
B|-------------------------------|
G|-------------------------------|
D|-------------------------------| x2
A|--0--3h5p3--0--0--1p0-----1----|
E|--0--0-0-0--0--0--0-0--0--0----|

E|-------------------------------------------------------------------|
B|-------------------------------------------------------------------|
G|-------------------------------------------------------------------|
D|-------------------------------------------------------------------|
A|--3--3h5p3--1--0----1--0-----1--0--5--5--5-5--3--3--5p3--3---------|
E|--3--3-3-3--------3-------3--------5--5--5h7--3--3-------3--3h5----|

E|----------------------------------------|
B|----------------------------------------|
G|----------------------------------------|
D|----------------------------------------|
A|--0--3h5p3--0--0--1p0-----1--0--3h5p3---|
E|--0--0-0-0--0--0--0-0--0--0--0--3-0-0---|

[Chorus 2] (2:30)

E|--------------------------------|
B|--------------------------------|
G|--------------------------------|
D|--10----------------------------|
A|--8--10--8-----8--3-----5--8----|
E|-----10--8-----8--3-----5--8----|

E|----------------------------------------|
B|----------------------------------------|
G|----------------------------------------|
D|----------------------------------------|
A|--0--3h5p3--0--0--1p0-----1--0--3h5p3---|
E|--0--0-0-0--0--0--0-0--0--0--0--3-0-0---|

E|--------------------------------|
B|--------------------------------|
G|--------------------------------|
D|--10----------------------------|
A|--8--10--8-----8--3-----5--8----|
E|-----10--8-----8--3-----5--8----|


[Interlude 2] (2:50){Gtr 1}

E|---------------------------------------------|
B|--------3------------------------------------|
G|--------2------------------------------------|
D|--------0------------------------------------| x3
A|--0-----0--------7--8-----8--10-----10--12---|
E|--0-----0--------7--8--0--8--10--0--10--12---|

E|-----------|
B|--------3--|
G|--------2--|
D|--------0--|
A|--0-----0--|
E|--0-----0--|

{Gtr 2}

E|------------------------------------------------------------------------------|
B|-----3-----------------------------------------------8--6-----8--6--5---------|
G|-----2-----2--4--1-----2--3-----3--5-----5--7-----7--------7-----------7------|
D|--0--0--0--0--0--0-----------0--------0--------0--0---------------------------| x3
A|------------------------------------------------------------------------------|
E|------------------------------------------------------------------------------|

E|--------|
B|-----3--|
G|-----2--|
D|--0--0--|
A|--------|
E|--------|

[Solo] (3:13)

E|----------------------------------------------------------------------------|
B|----------------------------------------------------------------------------|
G|-----------------2--3~--3b3--2--3--2----------------------------------------|
D|--------2--3--5-----------------------3~--3--5-----3--5--3--2--3--2---------|
A|--3--5---------------------------------------------------------------3~-----|
E|----------------------------------------------------------------------------|

E|-----------------------------------------------------------------------------------|
B|----------------------------------------8--8b8-----------3--3b3--3--3--3~--/10-----|
G|--5b----5--------------7--9--10------7----------------2----------------------------|
D|-----7-----7~-----5/7------------8~---------------3~-------------------------------|
A|-----------------------------------------------------------------------------------|
E|-----------------------------------------------------------------------------------|

E|------------------------------------------------------------------------|
B|-------------------------------------------------------------10---------|
G|--10-----------14--12--------10----------------------10--12--10---------|
D|-----12--0--0----------0--0------12--0--0--10--12-----------------------|
A|------------------------------------------------------------------------|
E|------------------------------------------------------------------------|

[Verse 3] (3:56)

E|---------------------------------------------------------------------------|
B|---------------------------------------------------------------------------|
G|---------------------------------------------------------------------------|
D|---------------------------------------------------------------------------| x2
A|--0--0--1--0--0-----3--------3~--0--0--1--0--0-----5--------5~-------------|
E|--0--0--1--0--0--0-----0--0------0--0--1--0--0--0-----0--0-----------------|

[Pre-Chorus 3] (4:09)

E|-------------------------------------------------------------------|
B|-------------------------------------------------------------------|
G|-------------------------------------------------------------------|
D|-------------------------------------------------------------------|
A|--3--3h5p3--1--0----1--0-----1--0--5--5--5-5--3--3--5p3--3---------|
E|--3--3-3-3--------3-------3--------5--5--5h7--3--3-------3--3h5----|

E|-------------------------------|
B|-------------------------------|
G|-------------------------------|
D|-------------------------------| x2
A|--0--3h5p3--0--0--1p0-----1----|
E|--0--0-0-0--0--0--0-0--0--0----|

E|-------------------------------------------------------------------|
B|-------------------------------------------------------------------|
G|-------------------------------------------------------------------|
D|-------------------------------------------------------------------|
A|--3--3h5p3--1--0----1--0-----1--0--5--5--5-5--3--3--5p3--3---------|
E|--3--3-3-3--------3-------3--------5--5--5h7--3--3-------3--3h5----|

E|----------------------------------------|
B|----------------------------------------|
G|----------------------------------------|
D|----------------------------------------|
A|--0--3h5p3--0--0--1p0-----1--0--3h5p3---|
E|--0--0-0-0--0--0--0-0--0--0--0--3-0-0---|

[Chorus 3] (4:32)

E|--------------------------------|
B|--------------------------------|
G|--------------------------------|
D|--10----------------------------|
A|--8--10--8-----8--3-----5--8----|
E|-----10--8-----8--3-----5--8----|

E|------------------------------------------|
B|------------------------------------------|
G|------------------------------------------|
D|------------------------------------------| x4 [not played on 4th repeat]
A|--0--3h5p3--0--0--1p0-----1--0--[3h5p3]---|
E|--0--0-0-0--0--0--0-0--0--0--0--[3-0-0]---|

[Outro] {Gtr 1}(5:19)

E|---------------------------------|
B|---------------------------------|
G|---------------------------------|
D|---------------------------------| x3
A|--0--3h5p3--0--0--1p0-----1------|
E|--0--0-0-0--0--0--0-0--0--0------|

{Gtr 2} (5:22)

E|--------------------------------------|
B|-------------------10--9--6--9b9b-----|
G|--10--9--7--9b9b7---------------------|
D|--------------------------------------|
A|--------------------------------------|
E|--------------------------------------|


************************************

| h   Hammer-on
| p   Pull-off
| b   Bend
| /   Slide up
| ~   Vibrato
Outros vídeos desta música
    25 exibições
      • ½ Tom
      • Am
      • Bbm
      • Bm
      • Cm
      • C#m
      • Dm
      • Ebm
      • Em
      • Fm
      • F#m
      • Gm
      • G#m
    • Adicionar à lista

    Afinação da cifra

    Afinador online

      0 comentários

      Ver todos os comentários

      Entre para o Cifra Club PRO

      Tenha acesso a benefícios exclusivos no App e no Site

      • Chega de anúncios

      • Mais recursos no app do Afinador

      • Atendimento Prioritário

      • Aumente seu limite de lista

      • Ajude a produzir mais conteúdo

      Cifra Club Pro

      Aproveite o Cifra Club com benefícios exclusivos e sem anúncios
      Cifra Club Pro
      Aproveite o Cifra Club com benefícios exclusivos e sem anúncios
      OK