Cifra Club

Swing On This

Alice In Chains

Cifra: Principal (violão e guitarra)
Selo Cifra Club: esta cifra foi revisada para atender aos critérios oficiais da nossa Equipe de Qualidade.
tom: G
E|----------------------------------------------------|
B|-6--4-----------------------------------------------|
G|-------5--4--2---------------2--4--4^5--4--2--------|
D|----------------4-0-2--3--4-------------------4-2--4|

E|--------4--------------------------------------------|
B|-6--4-6----------------------------------------------|
G|-----------5--4--2-------------2--4--4^5--4--2-------|
D|--------------------4-2--3--4-------------------4-2-4|

While the bass is playing that in the intro the guitar does this.

  G
E|-4-4----------------------4--------------------------|
B|-4-4----------------------4--------------------------|
G|-5-5----------------------5--------------------------|
D|-6-6----------------------6--------------------------|
A|-6-6----------------------6--------------------------|
E|-4-4----------------------4--------------------------|

Guitar verse

E|-4---4--4----2---2--2----4---4--4----4--2-2-3-|
B|-4---4--4----2---2--2----4---4--4----4--2-2-3-|
G|-5---5--5----3---3--3----5---5--5----5--3-3-4-|
D|-6---6--6----4---4--4----6---6--6----6--4-4-5-|
A|-6---6--6----4---4--4----6---6--6----6--4-4-5-|
E|-4---4--4----2---2--2----4---4--4----4--2-2-3-|

Repeat what the bass and guitar do during the verse and then go to the chorus.

Bass chorus
E|-----4-5/-------4-5-4-------4-5/-------4-5-4-|
B|---4----------4-----------4----------4-------|
G|---------------------------------------------| x2
D|-2----------2-----------2----------2---------|

Acoustic does not play in the chorus
Electric guitar chorus

E|---------------------------------------------|
B|---------------------------------------------|
G|-----4-5~-------4-5-4-------4-5~-------4-5-4-|
D|---4----------4-----------4----------4-------| x2
A|---------------------------------------------|
E|-2----------2-----------2----------2---------|

And then go back to the verse

Lyrics

Verse:
Mother said come home
Father said come home
Sister said come home
So my friend said come home
And I said

Chorus:
Let me be I'm allright
Can't you see I'm just fine
Little skinny okay
I'm asleep anyway

Verse:
Then I heard the voice
Said son you have a choice
I then slapped my face

Chorus:
Let me be I'm okay
I'm awake anyway
It's too bright over here
I can shift and I'll steer
Little skinny okay
I'm asleep anyway
Outros vídeos desta música
    47 exibições
      • ½ Tom
      • A
      • Bb
      • B
      • C
      • Db
      • D
      • Eb
      • E
      • F
      • F#
      • G
      • Ab
    • Adicionar à lista

    Afinação da cifra

    Afinador online

      0 comentários

      Ver todos os comentários

      Entre para o Cifra Club PRO

      Tenha acesso a benefícios exclusivos no App e no Site

      • Chega de anúncios

      • Mais recursos no app do Afinador

      • Atendimento Prioritário

      • Aumente seu limite de lista

      • Ajude a produzir mais conteúdo

      Cifra Club Pro

      Aproveite o Cifra Club com benefícios exclusivos e sem anúncios
      Cifra Club Pro
      Aproveite o Cifra Club com benefícios exclusivos e sem anúncios
      OK