Cifra Club

Them Bones

Alice In Chains

Tab de baixo: Principal
Selo Cifra Club: esta cifra foi revisada para atender aos critérios oficiais da nossa Equipe de Qualidade.
Main riff        

||------------------------------------------------|-
||*-----------------------------------------------|-
||*---5-------------------------------------------|-
||---------0--0--1-----1--1--1--2--2--2--3--0--0--|-

---------------------------------------------||-
--------------------------------------------*||-
--------------------------------------------*||-
---0--0--1-1-1-1--1--1--2--2--2--3--0--0-0-0-||-

Chorus (I feel so alone)      

----------------------------------|--
----------------------------------|--
----------------------------------|--
-/7--7--7--7--7--6--6--6--6--6--6/|--

----------------------------------------||
----------------------------------------||
----------------------------------------||
9---9---9---9---9---8--8--8--8--8--8--7\||
Outros vídeos desta música
    8.627 exibições

    Afinação da cifra

    Afinador online

    0 comentários

    Ver todos os comentários

    Entre para o Cifra Club PRO

    Tenha acesso a benefícios exclusivos no App e no Site

    • Chega de anúncios

    • Badges exclusivas

    • Mais recursos no app do Afinador

    • Atendimento Prioritário

    • Aumente seu limite de lista

    • Ajude a produzir mais conteúdo

    Cifra Club Pro

    Aproveite o Cifra Club com benefícios exclusivos e sem anúncios
    Cifra Club Pro
    Aproveite o Cifra Club com benefícios exclusivos e sem anúncios
    Ops (: Contenido disponible sólo en portugués.
    OK