Cifra Club

Aprenda

Voices

Alice In Chains

Cifra: Principal (violão e guitarra)
tom: Ab (forma dos acordes no tom de A) Afinação: Eb Ab Db Gb Bb Eb
The song begins with a small arrangement Flanger,just then a base Flanger comes in a time in music to begin the first verse:

Intro:
|------------------------------------------------------------------------------|
|------------------------------------------------------------------------------|
|-------------------7--9----7-9------------------------------------------------|
|----------------7-9-----------7~~--------------------7-9----------------------|
|---8-8-5-7-5-7-5--------------------7-8-8-8-8-7-5-7-5----10/12~~--10-12-10~~--|
|------------------------------------------------------------------------------|

Chords Effect Flanger:(A5 E5 B5 B5 B5)(6x)
                      (A5 D5 A5 E B5)

Now begins with acoustic guitar in the verse:

  Who am I?
  Is This Me?
  Am I wrong?
  Or Thirteen?

|---5-5-5-0-2-2------2-2-2-2-2-2-2----|
|---5-7-7-2-2-2------2-2-2-2-2-2-2----|
|---7-7-7-2-4-4------4-4-2-2-4-4-4----| 4x
|---7-----1-4-4------4-4-2-2-4-4-4----|
|---------0---------------------------|
|---------0---------------------------|

After 4 times played at the beginning with the acoustic guitar, the whole band comes in stanza ''I've gone cold'':

I've gone cold
Hard to deal
Used to stand
Where I kneel

|---5-5-5-0-2-2------2-2-2-2-2-2-2----|
|---5-7-7-2-2-2------2-2-2-2-2-2-2----|
|---7-7-7-2-4-4------4-4-2-2-4-4-4----| 4x
|---7-----1-4-4------4-4-2-2-4-4-4----|
|---------0---------------------------|
|---------0---------------------------|

Chorus: Lead Guitar:
D         A
Everybody listen
E         B
Voices in my head
D         A
Everybody listen
      E               B
Cause you'll see what mine says

Chorus(Rhythm Guitar):
       D         A            E          B
|--------------------------------------------------|
|-----------------------7--------------------------|
|------------7-7-7-----7-------------9-9-9---------| 2x
|---7-7-----7-----6-7-6----9-9------9-----8-9-9----|
|------7-8-7------------------9-10-9---------------|
|--------------------------------------------------|

Solo 1: Rhythm Guitar

|---5-5-5-0-2-2------2-2-2-2-2-2-2----|
|---5-7-7-2-2-2------2-2-2-2-2-2-2----|
|---7-7-7-2-4-4------4-4-2-2-4-4-4----| 4x
|---7-----1-4-4------4-4-2-2-4-4-4----|
|---------0---------------------------|
|---------0---------------------------|

Solo: Lead Guitar

|-------------------------------------------------------------------------------------|
|-------------------------------------------------------------------------------------|
|-7/9------------------------------------------------------------------2/4-0----------|
|----7---------------------------9-----------------------------6b6-4-2-2/4-2--2-2~~---|
|-----0-0-0-0-0-7~~----0-7-0-7h10-0---10-0-0-0-0-0-7~~--0-7-5-5------------3--2-2~~---|
|----------------------------------7h9------------------------------------------------|

|---------------------------|
|---------------------------|
|---7h9-----------7h9~~-----|
|------6-7-7b7-7b7----------|
|---------------------------|
|---------------------------|

Verse 2:

I want more
Than I need
I don't know
What is real

|---5-5-5-0-2-2------2-2-2-2-2-2-2----|
|---5-7-7-2-2-2------2-2-2-2-2-2-2----|
|---7-7-7-2-4-4------4-4-2-2-4-4-4----| 4x
|---7-----1-4-4------4-4-2-2-4-4-4----|
|---------0---------------------------|
|---------0---------------------------|

Chorus: Lead Guitar:
D         A
Everybody listen
E         B
Voices in my head
D         A
Everybody listen
      E               B
Cause you'll see what mine says
D         A
Anytime I listen
E         B
Voices in my head
D         A
Everybody listen
E                     B
Cause you'll see what mine says

Chorus(Rhythm Guitar):
       D         A            E          B
|--------------------------------------------------|
|-----------------------7--------------------------|
|------------7-7-7-----7-------------9-9-9---------| 4x
|---7-7-----7-----6-7-6----9-9------9-----8-9-9----|
|------7-8-7------------------9-10-9---------------|
|--------------------------------------------------|

Third Part: Lead Guitar
G      E
Whispering their names
B      A             G
Faces, uniforms I've worn
E
Now that it's gone
B       A
Always climbing
G  E
To fall down again
B       A
Holding on to everything
G    E
It's not what it seems

      Rhythm Guitar:
|---------------------------------------------------|
|---------------------------------------------------|
|---------------------------------------------------|3x Bb|-7-8(3x)-7-8-8-7-5~~---|
|---------------------------------------------------|
|---7--8-8-8-7-8-8-7-5~~------------------10~~------|
|--------------------------------7~~----------------|

Solo 2:
Now the solo will only come after the second time that the chords are executed:

|---5-5-5-0-2-2------2-2-2-2-2-2-2----|
|---5-7-7-2-2-2------2-2-2-2-2-2-2----|
|---7-7-7-2-4-4------4-4-2-2-4-4-4----| 4x
|---7-----1-4-4------4-4-2-2-4-4-4----|
|---------0---------------------------|
|---------0---------------------------|
  Final 2nd time
|------------------------------------------------------|
|------------------------------------------------------|
|---7/9------------------------------------------------|
|------7---------------------------9------7------------|
|-------0-0-0-0-0-7~~----0-7-0-7h10-0-0--7-5--5h7-0~~--|
|---------------------------------------5--------------|

Verse 3:

I've been told
Dreaming's free
Think I'll go
Back to sleep

|---5-5-5-0-2-2------2-2-2-2-2-2-2----|
|---5-7-7-2-2-2------2-2-2-2-2-2-2----|
|---7-7-7-2-4-4------4-4-2-2-4-4-4----| 4x
|---7-----1-4-4------4-4-2-2-4-4-4----|
|---------0---------------------------|
|---------0---------------------------|

|-----------------------|
|-----------------------|
|---3b3-3b3-3b3---------|
|---------------/4-2~~--| 2x Only in stanzas "I've been told" and "Think I'll go"
|-----------------------|
|-----------------------|

Chorus: Lead Guitar:
D         A
Everybody listen
E         B
Voices in my head
D         A
Everybody listen
      E               B
Cause you'll see what mine says
D         A
Anytime I listen
E         B
Voices in my head
D         A
Everybody listen
E                     B
Cause you'll see what mine says

Chorus(Rhythm Guitar):
       D         A            E          B
|--------------------------------------------------|
|-----------------------7--------------------------|
|------------7-7-7-----7-------------9-9-9---------| 4x
|---7-7-----7-----6-7-6----9-9------9-----8-9-9----|
|------7-8-7------------------9-10-9---------------|
|--------------------------------------------------|

Third Part Again: Lead Guitar
G      E
Calling out their names
B      A             G
Faces, uniforms I've worn
E
Now that it's gone
B       A
Always climbing
G  E
To fall down again
B       A
Holding on to everything
G    E
It's not what it seems

      Rhythm Guitar:
|---------------------------------------------------|
|---------------------------------------------------|
|---------------------------------------------------|3x Bb|-7-8(3x)-7-8-8-7-5~~---|
|---------------------------------------------------|
|---7--8-8-8-7-8-8-7-5~~------------------10~~------|
|--------------------------------7~~----------------|

Solo 2 Again:
Now the solo will only come after the second time that the chords are executed:

|---5-5-5-0-2-2------2-2-2-2-2-2-2----|
|---5-7-7-2-2-2------2-2-2-2-2-2-2----|
|---7-7-7-2-4-4------4-4-2-2-4-4-4----| 4x
|---7-----1-4-4------4-4-2-2-4-4-4----|
|---------0---------------------------|
|---------0---------------------------|
  Final 2nd time
|------------------------------------------------------|
|------------------------------------------------------|
|---7/9------------------------------------------------|
|------7---------------------------9------7------------|
|-------0-0-0-0-0-7~~----0-7-0-7h10-0-0--7-5--5h7-0~~--|
|---------------------------------------5--------------|

Arrangements Final:
                2x
|------------------------------------------------------------------------------|
|------------------------------------------------------------------------------|
|-------------------7--9----7-9------------------------------------------------|
|----------------7-9-----------7~~--------------------7-9----------------------|
|---8-8-5-7-5-7-5--------------------7-8-8-8-8-7-5-7-5----10/12~~--10-12-10~~--|
|------------------------------------------------------------------------------|
Composição de Layne Staley
Colaboração e revisão:
  • Gustavo Muniz
10.223 exibições
    • ½ Tom
    • A
    • Bb
    • B
    • C
    • Db
    • D
    • Eb
    • E
    • F
    • F#
    • G
    • Ab
  • Adicionar à lista

    0 comentários

    Ver todos os comentários

    Conseguiu tocar?

    3 Tocaram 1 Ainda não

    Grave um vídeo tocando Voices e nos envie!

    00:00 / 00:00
    outros vídeos desta música
    repetir qualidade Automático
    Outros vídeos desta música
    00:00 / 00:00
    Automático

    Cifra Club Pro

    Aproveite o Cifra Club com benefícios exclusivos e sem anúncios
    Cifra Club Pro
    Aproveite o Cifra Club com benefícios exclusivos e sem anúncios
    OK