Cifra Club

Whatcha Gonna Do

Alice In Chains

Cifra: Principal (violão e guitarra)
Selo Cifra Club: esta cifra foi revisada para atender aos critérios oficiais da nossa Equipe de Qualidade.
tom: F#m
E|-----------------------|-----------------------|
B|-----------------------|-----------------------|
G|-----------------------|-----------------------|
D|-7----5b7r---7---------|-2----5b7r---7---------|
A|-7-----------5---5-----|-2-----------5---5-----|
E|-5---------------3-----|-0---------------3-----|

    Lead overdub adds higher octaves on bends randomly, for example:
E|-----------------------|------15b17r-----------|
B|------8b10r------------|-----------------------|
G|-----------------------|-----------------------|
D|-----------------------|-----------------------|
A|-----------------------|-----------------------|
E|-----------------------|-----------------------|

 Intro ending 
E|-----------------------|-----------------------|
B|-----------------------|-----------------------|
G|-----------------------|-----------------------|
D|-7----5b7r---7---------|-2\| V-------------------|
A|-7-----------5---5-----|-2\| V-------------------| whammy bar dive
E|-5---------------3-----|-0\| V-------------------|



[Offbeat Verse]

    Note that the chords heard on 1st beat of each bar are played a 16th early, except first bar
E|-----------------------|------------------------|
B|-----------------------|------------------------|
G|-------6/7-------------|-------6/7--7--7--6-----|
D|-7-----6/7--5--5----5--|----5--6/7--7--7--6--7--|
A|-7-----4/5--5--5----5--|----5--4/5--5--5--4--7--|
E|-5----------3--3----3--|----3----------------5--|

E|-----------------------|------------------------|
B|-----------------------|------------------------|
G|-------6/7-------------|-------6/7--7--7--6-----|
D|----7--6/7--5--5----5--|----5--6/7--7--7--6--7--| play this 2x
A|----7--4/5--5--5----5--|----5--4/5--5--5--4--7--|
E|----5-------3--3----3--|----3----------------5--|

E|-----------------------|------------------------|
B|-----------------------|------------------------|
G|-------6/7-------------|------------------------|
D|----7--6/7--5--5----2--|--------------------(3)-|
A|----7--4/5--5--5----2--|--------------------(3)-|
E|----5-------3--3----0--|--------------------(1)-|
                                               2nd time only
Repeat Verse with vocals:

  "Hey now baby, whatcha gonna do..."



[Chorus]

E|-----------------------|-------------------------|----------3p0------------------------------------------|
B|-----------------------|-------------------------|--------------3p0-----3p0------------------------------|
G|-----------------------|-------------------------|------------------2p0-----2p0-----2p0------------------|
D|-2---3-2---------------|-2---3-2--------3--3--3--|-2---3-2----------------------2p0-----2p0-----2p0------|
A|-2---3-2---------------|-2---3-2--------3--3--3--|-2---3-2----------------------------------2p0-----2p0--|
E|-0---1-0---------------|-0---1-0--------1--1--1--|-0---1-0----------------------------------------------3|

E|-----------------------|-------------------------|-----------------------|-12-----------------------|
B|-----------------------|-------------------------|-----------------------|----15--------------------|
G|-----------------------|-------------------------|-----------------------|-9--7--15-14-15-14-12~----|
D|-2---3-2---------------|-2---3-2--------3--3--3--|-2---3-2---------------|-------8--7--8--7--5~-----|
A|-2---3-2---------------|-2---3-2--------3--3--3--|-2---3-2---------------|--------------------------|
E|-0---1-0---------------|-0---1-0--------1--1--1--|-0---1-0---------------|--------------------------|
    In last bar, Lead overdub plays notes from 12th position (other part is in 7th fret position)



Play Verse Again


[Chorus 2]

E|-----------------------|-------------------------|-----------------------|-14P| H---15PH--------------|
B|-----------------------|-------------------------|-----------------------|--------------------------|
G|-----------------------|-------------------------|-----------------------|--------------12~~~~~~----|
D|-2---3-2---------------|-2---3-2--------3--3--3--|-2---3-2---------------|--------------------------|
A|-2---3-2---------------|-2---3-2--------3--3--3--|-2---3-2---------------|--------------------------|
E|-0---1-0---------------|-0---1-0--------1--1--1--|-0---1-0---------------|--------------------------|

E|-----------------------|-------------------------|-----------------------|-12-----------------------|
B|-----------------------|-------------------------|-----------------------|----15--------------------|
G|-----------------------|-------------------------|-----------------------|-9--7--15-14-15-14-12~----|
D|-2---3-2---------------|-2---3-2--------3--3--3--|-2---3-2---------------|-------8--7--8--7--5~-----|
A|-2---3-2---------------|-2---3-2--------3--3--3--|-2---3-2---------------|--------------------------|
E|-0---1-0---------------|-0---1-0--------1--1--1--|-0---1-0---------------|--------------------------|
     In last bar, Lead overdub plays notes from 12th position again



Play Intro Again


[Tempo Change]

   (1:35) 
E|-15--------------------|-----------------------|-----------------------|-----------------------|
B|-15| gb17----------------|-----------------------|-5TR8------------------|-----------8b10~~------|
G|-----------------------|-----------------------|-----------------------|-----------------------|
D|-----------------------|-----------------------|-----------------------|-----------------------|
A|-----------------------|-----------------------|-----------------------|-----------------------|
E|-----------------------|-----------------------|-----------------------|-----------------------|



[Bridge]

E|----------------------------|-----------------------------|
B|----------------------------|-----------------------------|
G|------------------------2~--|----------------------2p0----|
D|--------2p0---------2p0-----|--------2p0-------2p0-----2--| play 2x
A|-------------3h4------------|-------------3h4-------------|
E|-0--3b----------------------|-0--3b-----------------------|

   repeat above line, but lead overdub is added:
E|----------------------------|------------------------------|
B|------------------------10--|----------------------10p8----|
G|--------9p7---------9p7-----|--------9p7-------9p7------9--|
D|------------10/11-----------|------------10/11-------------|
A|----------------------------|------------------------------|
E|----------------------------|------------------------------|



[Solo]

E|---------------------|---------------------|-----------------------|-----------------------|
B|-2-------------------|-0-------------------|-----------------------|-----------------------|
G|-2-------------------|-0-------------------|-7br9p0----------------|-----------------------|
D|-2-------------------|-0-------------------|----------7P| H--7PH~~---|------------------7p5--|
A|---------------------|---------------------|-----------------------|--5T| R7-----------------|
E|---------------------|---------------------|-----------------------|-----------------------|

E|-----------------------|-17br19--15-------------------------|---------------------------------|
B|----------17~~---------|------------17TP-15-17TP-15-17b20~~~|-13h14------13h14----------------|
G|-7/13------------------|------------------------------------|------12h14------12h14-12-14~~---|
D|-----------------------|------------------------------------|---------------------------------|
A|-----------------------|------------------------------------|---------------------------------|
E|-----------------------|------------------------------------|---------------------------------|

E|--------------------------------|
B|----12-12------12---------------|
G|-14------14p12-14b16------------|
D|--------------------------------|
A|--------------------------------|
E|--------------------------------|



[Instrumental Break]

E|-----------------------------------------|
B|-----------------------------------------|
G|-14-14-14-14-14p12h14--------------------| play 3x
D|-----------------------14-14-14---12h14--|
A|-----------------------------------------|
E|-----------------------------------------|

E|-----------------------|
B|-----------------------|
G|-----------------------|
D|-2--2\| V----------------|
A|-2--2\| V----------------|
E|-0--0\| V----------------|



Play Verse Again for 8 bars, Bass continues playing Verse but Guitar plays Ending below.



[Ending]

E|-----5-5-----5--------5-|---------------------|-----5-5-----5--------|-5---------------------|
B|-----5-5-----5--------5-|---------------------|-----5-5-----5--------|-8b10--8--5--5~--------|
G|-7b9-----7b9---7b9~~~---|-7br9--5---5---------|-7b9-----7b9---7b9~~--|-------------7b9~------|
D|------------------------|---------7---7--5----|----------------------|-----------------------|
A|------------------------|---------------------|----------------------|-----------------------|
E|------------------------|---------------------|----------------------|-----------------------|

E|-17-----------------------|-----------------------------|---------------------------|
B|-20b22--20--17--17----17--|---17----17--17--17--17--17--|-20b22--20--17-----17--17--|
G|----------------19b21-b21-|---b21--b21-b21-b21-b21-b21--|----------------19-b21-b21-|
D|--------------------------|-----------------------------|---------------------------|
A|--------------------------|-----------------------------|---------------------------|
E|--------------------------|-----------------------------|---------------------------|

E|-------------------|-----------------------------|
B|-------------------|-15br17-12-------------------|
G|-0~~~~~~~~~--------|-----------14br16-12---------|
D|-------------------|---------------------12-14---|
A|-------------------|-----------------------------|
E|-------------------|-----------------------------|



************************************

| x   Dead note
| h   Hammer-on
| p   Pull-off
| r   Release
| b   Bend
| gb  Gradual Bend, for longer notes 
| br  Bend and release
| pb  Pre-bend
| pbr Pre-bend release
| /   Slide up
| \   Slide down
| ~   Vibrato
| PM  Palm mute
| TR  Trill
| PH  Pinch Harmonic
| TP  Tremelo picking
Outros vídeos desta música
    13 exibições
      • ½ Tom
      • Am
      • Bbm
      • Bm
      • Cm
      • C#m
      • Dm
      • Ebm
      • Em
      • Fm
      • F#m
      • Gm
      • G#m
    • Adicionar à lista

    Afinação da cifra

    Afinador online

      0 comentários

      Ver todos os comentários

      Entre para o Cifra Club PRO

      Tenha acesso a benefícios exclusivos no App e no Site

      • Chega de anúncios

      • Mais recursos no app do Afinador

      • Atendimento Prioritário

      • Aumente seu limite de lista

      • Ajude a produzir mais conteúdo

      Cifra Club Pro

      Aproveite o Cifra Club com benefícios exclusivos e sem anúncios
      Cifra Club Pro
      Aproveite o Cifra Club com benefícios exclusivos e sem anúncios
      OK