Enviar cifraEntrar

Smooth Criminal

Alien Ant Farm

Cifra: Principal
exibições 45.915
Tom: C
Introdução:

       P.M. . . . . .  .    . . .  .    . . .  .

E|-----------------------------------------------------|
B|-----------------------------------------------------|
G|-----------------------------------------------------|
D|-----------------------------------------------------|
A|-----------------------------------------------------|
E|-5----5-5-5-5-3-5-7--7----5-7-8--8----8-8-7--3-------|


  P.M   . . . . . . .  .    . . .  .    . . .  .

E|-----------------------------------------------------|
B|-----------------------------------------------------|
G|-----------------------------------------------------|
D|-----------------------------------------------------|
A|-----------------------------------------------------|
E|-5----5-5-5-5-3-5-7--7----5-7-8--8----8-8-7--3-------|



Primeira Parte:

As he came into the window
It was the sound of
A crescendo
He came into her apartment
He left the bloodstains
On the carpet
She was sitting at the table
He could see she 
Was unable
So she ran into the bedroom
She was struck down
it was her doom


Ponte 1:

F5
   Annie are you ok

Are you ok
        G5     F5
Are you ok, Annie


Annie are you ok

Are you ok
        G5     F5
Are you ok, Annie


Annie are you ok

Are you ok
        G5     F5
Are you ok, Annie


Annie are you ok
        E5
Are you ok
        G5  E5  G5  A5
Are you o___k,  An_nie


Primeiro Refrão:

A5               G5
   Annie are you ok
          F5
Will you tell us 
            G5  E5  G5  A5
That you're o___k
                       G5
There's a sign in the window
           F5
That he struck you 
       G5  E5  G5  A5
A crescen_do,  An_nie
                    G5
He came into your apartment
              F5
He left the bloodstains 
        G5  E5  G5  A5
On the car_pet
                       G5
Then you ran into the bedroom
            F5
You were struck down
        G5   E5  G5
It was your doom


Ponte 2:

F5
   Annie are you ok

Are you ok
        G5    F5
Are you ok Annie


Annie are you ok

Are you ok
        G5    F5
Are you ok Annie


Annie are you ok

Are you ok
        G5    F5
Are you ok Annie

 E5
You've been hit by

You've been struck by
               
A smooth criminal


Segunda Parte:

So they came into the outway
It was sunday 
What a black day
Mouth to mouth resuscitation
Sounding heartbeats 
Intimidations


Ponte 3:

F5
   Annie are you ok

Are you ok
        G5     F5
Are you ok, Annie


Annie are you ok

Are you ok
        G5     F5
Are you ok, Annie


Annie are you ok

Are you ok
        G5     F5
Are you ok, Annie


Annie are you ok
        E5
Are you ok
        G5  E5  G5  A5
Are you o___k,  An_nie


Segundo Refrão:

A5               G5
   Annie are you ok
          F5
Will you tell us 
            G5  E5  G5  A5
That you're o___k
                       G5
There's a sign in the window
           F5
That he struck you 
       G5  E5  G5  A5
A crescen_do,  An_nie
                    G5
He came into your apartment
              F5
He left the bloodstains 
        G5  E5  G5  A5
On the car_pet
                       G5
Then you ran into the bedroom
            F5
You were struck down
        G5   E5  G5
It was your doom


Ponte 4:

F5
   Annie are you ok

Are you ok
        G5    F5
Are you ok Annie

 E5
You've been hit by

You've been struck by

A smooth criminal


Solo: Riff Principal
      A5
      Riff Principal


E|-----------------------------------------------------|
B|-1-0---0---------------------------------------------|
G|-----2---2-0---0h2-2-2-0-2-2-2-----------------------|
D|-------------2---------------------------------------|
A|-----------------------------------------------------|
E|-----------------------------------------------------|




Terceiro Refrão:

A5               G5
   Annie are you ok
          F5
Will you tell us 
            G5  E5  G5  A5
That you're o___k
                       G5
There's a sign in the window
           F5
That he struck you 
       G5  E5  G5  A5
A crescen_do,  An_nie
                    G5
He came into your apartment
              F5
He left the bloodstains 
        G5  E5  G5  A5
On the car_pet
                       G5
Then you ran into the bedroom
            F5
You were struck down
        G5   E5  G5
It was your doom


Ponte 5:

A5               G5
   Annie are you ok
        F5
Are you ok
        G5  E5  G5  A5
Are you o___k   An_nie

              G5
Annie are you ok
        F5
Are you ok
        G5  E5  G5  A5
Are you o___k   An_nie

              G5
Annie are you ok
        F5
Are you ok
        G5  E5  G5  A5
Are you o___k   An_nie

              G5
Annie are you ok
        F5
Are you ok
        G5  E5  G5  A5
Are you o___k   An_nie


(Riff Principal)

  P.M   . . . . . . .  .    . . .  .    . . .  .

E|-----------------------------------------------------|
B|-----------------------------------------------------|
G|-----------------------------------------------------|
D|-----------------------------------------------------|
A|-----------------------------------------------------|
E|-5----5-5-5-5-3-5-7--7----5-7-8--8----8-8-7--3-------|
  • 1
  • 2
  • 3
  • 4
  • 5
  • 6
  • 7
  • 8
  • 9
  • 10
  • 11
  • 12
    Acordes para:
      Composição: Michael JacksonColaboração e revisão:
      • v.inny

      0 comentários

        mostrar mais comentários

        Conseguiu tocar?

        3tocaram0ainda não

        Grave um vídeo tocando Smooth Criminal e mande pra gente!

        00:00 / 00:00
        outros vídeos desta música
        repetirqualidadeautomática
        • automática
        Outro vídeos desta música
          Capítulos
          • Tocando a música
          • Dicas Iniciais / Equipamentos
          • Tocando a Introdução e Primeira Parte
          • Riff Principal
          • Acordes da Ponte
          • Tocando a Ponte 1
          • Ritmo da Ponte 1
          • Tocando o Refrão
          • Ritmo do Refrão
          • Tocando a Ponte 2
          • Ritmo da Ponte 2
          • Tocando a Ponte 4
          • Ritmo da Ponte 4
          • Tocando o Solo
          • Solo
          • Encerramento
          • Ficha Técnica
          00:00 / 00:00
          automática
          • automática
          fecharplay/pause subir/descer velocidade
            Acordes para:violão e guitarra
            acordes
            fechar
            OK