Cifra Club

Nada Está Normal

Alinne Rosa

Cifra: Principal (violão e guitarra)
tom: G
E|-5--3-----------------------------------5--3--------------------------------------5---3------|
B|-------7--5--3--5--7-7--5--7-7--3-5-7---------7--5--3---5--7-7--5--7-7----5---3----------7---|
G|---------------------------------------------------------------------------------------------|
D|---------------------------------------------------------------------------------------------|
A|---------------------------------------------------------------------------------------------|
E|---------------------------------------------------------------------------------------------|

D9
Não era normal sentir saudade de você assim
Bm
Não era normal te imaginar longe de mim
       G
O que aconteceu?
                              D9
Será que se perdeu em nossos planos?

D9
Não era normal te ligar e você não me atender
Bm
Não era normal planejar o meu futuro sem você
       G
Agora nada é normal
                                   D9
Porque você não está aqui pra continuar nossos sonhos

Milhares de sonhos

       Em                    G             Bm
Onde está você? Por que não vem me ver ao menos?
        Em                    G            D9
Aonde está você? Por que não vem me ver ao menos?

REFRÃO

             G
É que eu já tinha imaginado
                           D9
O primeiro aniversário da gente, um ano de namoro
             G
É que eu já tinha até sonhado
                            D9
Uma vida inteira feliz pra gente

Com todos os defeitos

       Em                 G
Eu confesso nada está normal
            D9
Sem você aqui

E|----------------------------5--3------------------------------------------|
B|----5--7-7--5--7-7--3-5-7---------7--5--3---5--7-7--5--7-7----5---3-------|
G|--------------------------------------------------------------------------|
D|--------------------------------------------------------------------------|
A|--------------------------------------------------------------------------|
E|--------------------------------------------------------------------------|

D9
Não era normal te ligar e você não me atender
Bm
Não era normal planejar o meu futuro sem você
       G
Agora nada é normal
                                   D9
Porque você não está aqui pra continuar nossos sonhos

Milhares de sonhos

       Em                    G             Bm
Onde está você? Por que não vem me ver ao menos?
        Em                    G            D9
Aonde está você? Por que não vem me ver ao menos?

REFRÃO (2x)

             G
É que eu já tinha imaginado
                           D9
O primeiro aniversário da gente, um ano de namoro
             G
É que eu já tinha até sonhado
                            D9
Uma vida inteira feliz pra gente

Com todos os defeitos 

       Em                 G
Eu confesso nada está normal
            D9
Sem você aqui
00:00 / 00:00
Outros vídeos desta música
Repetir
Outros vídeos desta música
Composição de Felipe Oliver / Matheus Aleixo
Colaboração e revisão:
  • Carolina Santin
279 exibições
    • ½ Tom
    • A
    • Bb
    • B
    • C
    • Db
    • D
    • Eb
    • E
    • F
    • F#
    • G
    • Ab
  • Adicionar à lista

    0 comentários

    Ver todos os comentários

    Conseguiu tocar?

    0 Tocaram 0 Ainda não

    Grave um vídeo tocando Nada Está Normal e nos envie!

    Entre para oCifra Club PRO

    Tenha acesso a benefícios exclusivos no App e no Site

    • Chega de anúncios

    • Prioridade de compra em lançamentos

    • Mais recursos no app do Afinador

    • Atendimento Prioritário

    • Descontos nos produtos Cifra Club

    • Ajude a produzir mais conteúdo

    00:00 / 00:00

    Cifra Club Pro

    Aproveite o Cifra Club com benefícios exclusivos e sem anúncios
    Cifra Club Pro
    Aproveite o Cifra Club com benefícios exclusivos e sem anúncios
    OK