Cifra Club

Settle For Satin

Alkaline Trio

Tab de baixo: Principal
Intro
G|-----------------------------------------------------------|x2 
D|-----------------------------------------------------------|
A|-----------------------------------------------------------|
E|--5----------0----------1-----------3----4----5------------|

Verse
G|-----------------------------------------------------------|x2 
D|-----------------------------------------------------------|
A|-----------------------5-----------------------------------|
E|--5---------0---------------------3---4---5----------------|

Pre Chorus
G|------------------------------------------------------------|x2 
D|------------------------------------------------------------|
A|------------------------------------------------------------|
E|--5---------------------3---------------------1-------------|

Chorus
G|--------------------|x3-then...-----------------------------| 
D|--------------------|---------------------------------------|
A|------3-------------|----------------3----------------------|
E|--5--------1----3---|------------5-------1---3—4-5----------|

Bridge (here Dan plays a small fill part, but it's pretty difficult
to figure it out with the tone,these one notes do fine though)
G|------------------------------------------------------------|
A|------3---5-------------------------------------------------|
E|--5-----------0---1--------------3--------------------------|

Outro (same as chorus)
G|--------------------|x3-then...-----------------------------| 
D|--------------------|---------------------------------------|
A|------3-------------|----------------3----------------------|
E|--5--------1----3---|------------5-------1---3—4-5----------|
exibições 309
Composição: Alkaline Trio

0 comentários

mostrar mais comentários

Conseguiu tocar?

0 tocaram 0 ainda não

Grave um vídeo tocando Settle For Satin e mande pra gente!

00:00 / 00:00
outros vídeos desta música
repetir qualidade Automático
Outros vídeos desta música
00:00 / 00:00
Automático
OK