Cifra Club

Olvidaste decir adiós

Allison

Cifra: Versão 2 (violão e guitarra)
tom: B
Olvidaste decir adios.
  G#   F#   B    E
E|---------------------|
B|---------------------|
G|------------4--------|
D|--6-----4---4----2---|
A|--6-----4---2----2---|
E|--4-----2--------0---|


B(con palm mute)           G#               F#
   (y punteado)
No puedo y es que no quiero, seguir mas asi , mas asi

ESTRIBILLO
      B                      G#                     E
Y te extraño muero por que me llames y escuchar que todo esta bien y
                   F#
que sientes que el dolor que tienes dentro de ti estas muriendo.

E|-----------------------------------------------------------| I
B|---/7/4/5/4/2-0--(x3)| ---/16/15------/16-16-15--------------I
G|-------------------------------15--------------16-17--16~--| I
D|-----------------------------------------------------------| I
A|-----------------------------------------------------------| I
E|-----------------------------------------------------------| I

II
 B                                     G#
Crees que no te entiendo, no sabes el dolor que llevo dentro, tener
           E                            F#
que esto se esta desvaneciendo, tu solo te fuiste aunque eso no esta

bien

ESTRIBILLO
       B                      G#                E
Y te extraño muero por que me llames y escuchar que todo esta bien y
                   F#
que sientes que el dolor que tienes dentro de ti estas muriendo.

E|-----------------------------------------------------------| I
B|---/7/4/5/4/2-0--(x3)| ---/16/15------/16-16-15--------------I
G|-------------------------------15--------------16-17--16~--| I
D|-----------------------------------------------------------| I
A|-----------------------------------------------------------| I
E|-----------------------------------------------------------| I

G#            E        B   F#
Ven, para atrás duele y no se


aki en la parte ke sigue se le puede meter este arreglo sin disctorcion!
E|---8---7---8--------------|
B|---8---8---8--------------|
G|--------------------------|
D|--------------------------|
A|--------------------------|


Y te extraño muero por que me llames y escuchar que todo esta bien y

que sientes que el dolor que tienes dentro de ti estas muriendo.


       B                      G#                   E
Y te extraño tus palabras de aliento, y que me llames flaco esta
             F#
siempre dentro de mi una y otra vez

       B          G#       E           F#
Y te extraño, te extrañoo, te extraño y el dolor que tienes dentro de

                  B
ti esta muriendo.

**************************************************************
para mi banda de ruta 120!!
ese lalo chuy rolando Y EL BUEN THOMAS!!
ami familia!!!
y amis cuates!!
Compositor não encontrado.
    • ½ Tom
    • A
    • Bb
    • B
    • C
    • Db
    • D
    • Eb
    • E
    • F
    • F#
    • G
    • Ab
  • Adicionar à lista

    0 comentários

    Ver todos os comentários

    Conseguiu tocar?

    0 Tocaram 0 Ainda não

    Grave um vídeo tocando Olvidaste decir adiós e nos envie!

    00:00 / 00:00
    Outros vídeos desta música
    Repetir Qualidade Automático
    Outros vídeos desta música
    00:00 / 00:00
    Automático

    Cifra Club Pro

    Aproveite o Cifra Club com benefícios exclusivos e sem anúncios
    Cifra Club Pro
    Aproveite o Cifra Club com benefícios exclusivos e sem anúncios
    OK