Cifra Club

Te amo demasiado

Allison

Cifra: Principal (violão e guitarra)
tom: Db
   Db5  Bb5   Gb5   Ab5
E|--------------------------|
B|--------------------------|
G|--6-----------------------|
D|--6-----8-----4-----6-----|
A|--4-----8-----4-----6-----|
E|--------6-----2-----4-----|

Db5              Bb5
Que dificil es mirarte otra vez
Gb5           Ab5
sabiendo que ahora quieres a otro
             Db5                      Bb5
E|-----------------------------------------------------|
B|-----------------------------------------------------|
G|--6-----13-----11----10-----------13----11----10-----|
D|--6-x3----x3----x3----x3----8-------x3----x3----x3---|
A|--4-----11-----9-----8------8-x3--11----9-----8------|
E|----------------------------6------------------------|

             Gb5                        Ab5
E|----------------------------------------------------|
B|----------------------------------------------------|
G|--------13-----11-----10------------10----11-----10-|
D|--4-------x3-----x3-----x3---4--------x3----x3------|
A|--4-x3--11-----9------8------6-x3---8-----9------8--|
E|--2--------------------------6----------------------|

    C#5 [varias veces]

     Db5           Bb5         Gb5                Ab5
      Estamos solo tu y yo la noche llego y hace frio
     Db5         Bb5                 Gb5                  Ab5
      y me pides que me valla y tus manos no dejan de temblar

 Gb5 Ab5                  Db5          Bb5
      aveces no dejo de pensar que tu quieres regresar
     Gb5    Ab5              Db5
      pero me doy cuenta que lo nuestro ya nunca sera igual

     Db5         Gb5                       Bb5  Ab5
      Te amo demasiado que a veces me hago daño por ti
     Db5               Gb5                  Bb5  Ab5
      como quisiera olvidarte por poder saber algo de ti

            Db5                         Bb5
E|-----------------------------------------------------|
B|-----------------------------------------------------|
G|--6-----13-----11----10-----------13----11----10-----|
D|--6-x3----x3----x3----x3----8-------x3----x3----x3---|
A|--4-----11-----9-----8------8-x3--11----9-----8------|
E|----------------------------6------------------------|

            Gb5                         Ab5
E|----------------------------------------------------|
B|----------------------------------------------------|
G|--------13-----11-----10------------10----11-----10-|
D|--4-------x3-----x3-----x3---4--------x3----x3------|
A|--4-x3--11-----9------8------6-x3---8-----9------8--|
E|--2--------------------------6----------------------|

E|---9-8---8----9-8---8---11--| (3 VECES)
B|-------9----------9---9-----|

E|-------9------9------9------9------9--|
B|-----9------9------9------9------9----| (4 VECES)
G|--10-----10-----10-----10-----10------|

E|----------------------------------------------------------------------|
B|----------------------------------------------------------------------|
G|---5-66666666---5-66666666--5-66666666--1111111111--101010--13--10--|
D|----------------------------------------------------------------------|
A|---3-44444444---3-44444444--3-44444444--9-9-9-9-9---8-8-8---11--8---|
E|----------------------------------------------------------------------|

E|----------------------------------|
B|----------------------------------|
G|---1111111111--101010--13--10---| (4 VECES)
D|----------------------------------|
A|---9-9-9-9-9---8-8-8---11--8---|
E|----------------------------------|
     Db5         Gb5                       Bb5  Ab5
      Te amo demasiado que a veces me hago daño por ti
     Db5               Gb5                  Bb5  Ab5
      como quisiera olvidarte por poder saber algo de ti

 Gb5 Ab5                  Db5          Bb5
      aveces no dejo de pensar que tu quieres regresar
     Gb5    Ab5              Db5                            Gb5
      pero me doy cuenta que lo nuestro ya nunca sera igual

     Ab5        Bb5         Db5         Bb5              Gb5
      solo me queda el recordar que fuiste muy especial
             Ab5          Db5
      y arrancarte de mi vida
Compositor não encontrado.
    • ½ Tom
    • A
    • Bb
    • B
    • C
    • Db
    • D
    • Eb
    • E
    • F
    • F#
    • G
    • Ab
  • Adicionar à lista

    0 comentários

    Ver todos os comentários

    Conseguiu tocar?

    0 Tocaram 0 Ainda não

    Grave um vídeo tocando Te amo demasiado e nos envie!

    00:00 / 00:00
    Outros vídeos desta música
    Repetir Qualidade Automático
    Outros vídeos desta música
    00:00 / 00:00
    Automático

    Cifra Club Pro

    Aproveite o Cifra Club com benefícios exclusivos e sem anúncios
    Cifra Club Pro
    Aproveite o Cifra Club com benefícios exclusivos e sem anúncios
    OK