Cifra Club

Peabiru

Almir Sater

Cifra: Principal (violão e guitarra)
Selo Cifra Club: esta cifra foi revisada para atender aos critérios oficiais da nossa Equipe de Qualidade.
tom: Am
[Intro] Am  D  F  C  G

E|--------8------0------------------------------------|
B|-8h10-----10p8---8-8h10---8-10------10--------------|
G|-0--------0--------0--------0-----------------------|
D|----------------------------------------------------|
A|------0-----------------0------0--------------------|
E|----------------------------------------------------|

E|--------8------0-3-5-0-3-0-2-------2----------------|
B|-8h10-----10p8--------------------------------------|
G|-0--------0----------------0------------------------|
D|----------------------------------------------------|
A|------0------------0---------0----------------------|
E|----------------------------------------------------|

E|-3p0---2-5p2---2-3p2p0---0-1----1-3p1---1-5---------|
B|-----------------------1--------------1-----6---6---|
G|-0---5-------5--------------------2-----------5-----|
D|---------------------------3--3-------3-------------|
A|---------0-------0-----0------------------0---------|
E|----------------------------------------------------|

E|-3p1---1-------0-----0-3-3p0---0-----0--------------|
B|-----1---1---1-----1---------1-----1-----3----------|
G|-2---------------2-------0-------2-----2------------|
D|-----3--------------------------------------2-------|
A|---------3-------3---3-----------3------------------|
E|----------------------------------------------------|

E|-0---------2h3----3-3p0-----------------------------|
B|---1h3---3--------------0---------------------------|
G|---0-------------0--------0-2-----------------------|
D|-------2--------------------------------------------|
A|----------------------------------------------------|
E|---------------3--------3---------------------------|

[Solo]

Am
E|-5--3--0-------0-3-0-----------0-3-5----------------|
B|-------------3-------3-----1-3----------------------|
G|----------------------------------------------------|
D|----------------------------------------------------|
A|----------------------------------------------------|
E|----------------------------------------------------|

Am
Quem souber podia me dizer
                         D
Onde é que o nosso ouro foi
                            F
Pau-brasil faz tempo que sumiu
                     C
Dessa terra tão abençoada
                       G/E
Que entrou em outra jogada
                           Am
E hoje é tudo soja milho e boi

Am
Quem souber podia me dizer
                          D
Como é que eu faço pra pegar
                        F
A velha estrada do Peabiru
                         C
Que vem lá de Santa Catarina, Paraná
            G/E                           Am
Paraguai acima, e atravessa a América do sul

[Riff 1]

E|----------------------------------------------------|
B|-----1---3---5---10--5/3--1-------------------------|
G|-2---------------------------2----------------------|
D|----------------------------------------------------|
A|-0---3---5---7---12--7/5--3--0----------------------|
E|----------------------------------------------------|

[Refrão]

F                        C
  Na promessa de um Eldorado
F                    C
 Vinham almas aventureiras
F                        C
 Sempre a procurar horizontes
                    E7
Venceram até cordilheiras
                   Am
E o pacifico era azul

[Riff 2]

E|----------------------------------------------------|
B|-----1---3---5p3-1----------------------------------|
G|-2------------------2-------------------------------|
D|----------------------------------------------------|
A|-0---0---0---0------0-------------------------------|
E|----------------------------------------------------|

[Solo] Am  D  F  C  G

Am
Quem souber podia me dizer
                         D
Onde é que a gente se meteu
                            F
Nessa imensa faixa de fronteira
                         C
Cujo nome é terra de ninguém
                             G/E
Onde reina e manda qualquer um
                                Am
Onde o rei pode ser um fora da lei

[Riff 3]

E|---------------------------------------------------------|
B|-8/10--8--------------------3/5-6h7~---------------------|
G|-7/9---7--7/9--7h9p7-5--2---2/4-7--~---2p0-------------2-|
D|----------7/9--7/----5--2------------------2p0---0-1h2---|
A|-----------------------------------------------3---------|
E|---------------------------------------------------------|

Am
Quem souber podia me dizer
                         D
De onde é que veio esse som
                           F
Tá com jeito meio do Altiplano
                         C
Onde o povo segue celebrando
                              G/E
O Sol, a Lua e tudo que é profano
                                Am
No tango, charango, viola e chamamé

[Riff 4]

E|----------------------5p3---------------------------|
B|-----1---3---3/5/---------5p3-----------------------|
G|-2----------------------------5---2-----------------|
D|----------------------------------------------------|
A|----------------------------------------------------|
E|----------------------------------------------------|

[Refrão]

F                        C
  Na promessa de um Eldorado
F                    C
 Vinham almas aventureiras
F                        C
 Sempre a procurar horizontes
                    E7
Venceram até cordilheiras
                   Am
E o pacifico era azul

[Riff 5]
E|----------------------------------------------------|
B|----------------------------------------------------|
G|-2---5---7---7b9r7p5/-2-----------------------------|
D|----------------------------------------------------|
A|----------------------0-----------------------------|
E|----------------------------------------------------|

[Solo] Am  D  F  C  G

[Riff 6]
E|----------------------------------------------------|
B|-----1---3-----3h5p3/1------------------------------|
G|-2---------------------2p0-----------0-2------------|
D|---------------------------2p0---0-2----------------|
A|-------------------------------3--------------------|
E|----------------------------------------------------|

[Final] Am
00:00 / 00:00
Outros vídeos desta música
Repetir
Outros vídeos desta música
8.231 exibições
    • ½ Tom
    • Am
    • Bbm
    • Bm
    • Cm
    • C#m
    • Dm
    • Ebm
    • Em
    • Fm
    • F#m
    • Gm
    • G#m
  • Adicionar à lista

Afinação da cifra

Afinador online

    0 comentários

    Ver todos os comentários

    Entre para o Cifra Club PRO

    Tenha acesso a benefícios exclusivos no App e no Site

    • Chega de anúncios

    • Mais recursos no app do Afinador

    • Atendimento Prioritário

    • Aumente seu limite de lista

    • Ajude a produzir mais conteúdo

    00:00 / 00:00

    Cifra Club Pro

    Aproveite o Cifra Club com benefícios exclusivos e sem anúncios
    Cifra Club Pro
    Aproveite o Cifra Club com benefícios exclusivos e sem anúncios
    OK