Cifra Club

Aprenda

Down To My Last

Alter Bridge

Cifra: Versão 2 (violão e guitarra)
Tom: C#
Tabbed by: Tom H.
Email: *

Tuning: Standard down ½ step (low to high - Eb Ab Db Gb Bb eb)


This is the general idea of what's going on in this song. The progression of
parts is pretty repetitive since almost the whole song is the same chord progression
(Ab, Eb, Db, Ab). I tabbed it the way I play it, but feel free to add or take away
extra notes however you want during each part. I added the high Ab and Eb (14th fret)
on top in the chorus to make it sound thicker than the verse, but you can play
around with each part and find which way sounds best to you.  Sorry no solo, I figured this
out on an old classical guitar so I don't have all the upper register notes needed.



eb|-------------------------------------------------------------------|
Bb|-------------------------------------------------------------------|
Gb|-------------------------------------------------------------------|
Db|-11--11--11-12-12/14--14-12-11-11----------------------------------|
Ab|-0---0---0--0--0------0--0--0--0---14--14--11-12-12/14--14-12-11---|
Eb|-----------------------------------0---0---0--0--0------0--0--0----|
                                   
                                  
eb|--------------------------------------------------------------|
Bb|--------------------------------------------------------------|
Gb|-11--11--11-9-9----14p12p11-----------------------------------|
Db|-0---0---0--0-0--0----------12p11p9-11--11-11-9----7-9b(1)r-7-|
Ab|-0---0---0--0-0--0------------------0---0--0--0---(0)-------0-|
Eb|--------------------------------------------------------------|


Verse 1 - clean

eb|---------------------------------------------------|
Bb|---------------------------------------------------|
Gb|---------------------------------------------------|
Db|-11--11--11-12--12-12-11---------------------------|
Ab|-0---0---0--0---0--0--0---11--11--11-12--12-12-11--|
Eb|--------------------------0---0---0--0---0--0--0---|
                                                                     
eb|---------------------------------------------------------|
Bb|---------------------------------------------------------|
Gb|-11--11--11-9--9-9-9p7\6---------------------------------|
Db|-0---0---0--0--0-0-0------11--11--11-12--12-12-12-11--9--|
Ab|--------------------------0---0---0--0---0--0--0--0---0--|
Eb|---------------------------------------------------------|

eb|----------------------------------------------------|
Bb|----------------------------------------------------|
Gb|----------------------------------------------------|
Db|-/11--11--11-12--12-12-11---------------------------|
Ab|--0---0---0--0---0--0--0---11--11--11-12--12-12-11--|
Eb|---------------------------0---0---0--0---0--0--0---|
                                   
eb|------------------------------------------------------------------|
Bb|------------------------------------------------------------------|
Gb|-11--11--11-9--9-9-11brp9------14--14-14-14--14-14--14-14--14-14--|
Db|-0---0---0--0--0-0-0------11-9-11--11-11-11--11-12--12-12--12-11--|
Ab|-------------------------------0---0--0--0---0--0---0--0---0--0---|
Eb|------------------------------------------------------------------|

eb|-------------------------------------------------------------------|
Bb|-------------------------------------------------------------------|
Gb|-------------------------------------------------------------------|
Db|-11--11--11-12-12/14--14-12-11-11----------------------------------|
Ab|-0---0---0--0--0------0--0--0--0---14--14--11-12-12/14--14-12-11---|
Eb|-----------------------------------0---0---0--0--0------0--0--0----|
                                   
eb|-------------------------------------------------------------------|
Bb|-------------------------------------------------------------------|
Gb|-11--11--11-9--9-9--9----------------------------------------------|
Db|-0---0---0--0--0-0--0--11-9-11--11-11-11--11-12--12-12--12-11--9---|
Ab|-0---0---0--0--0-0--0-------0---0--0--0---0--0---0--0---0--0---0---|
Eb|-------------------------------------------------------------------|

eb|-------------------------------------------------------------------|
Bb|-------------------------------------------------------------------|
Gb|-------------------------------------------------------------------|
Db|-/11--11--11-12-12/14--14-12-11-11---------------------------------|
Ab|--0---0---0--0--0------0--0--0--0---14--14--11-12-12/14--14-12-11--|
Eb|------------------------------------0---0---0--0--0------0--0--0---|

eb|------------------------------------------------|
Bb|--------------------------3--3--3-3-3-3--3-3-3--|
Gb|--------------------------2--2--2-2-2-2--2-2-2--|
Db|--4--4-----4--------------0--0--0-0-0-0--0-0-0--|
Ab|--4--4-4-4-4--4-4-4-4--4--0--0--0-0-0-0--0-0-0--|
Eb|--2--2-2-2-2--0-2-0-2--0------------------------|
          . .

Chorus

eb|-------------------------------------------------------------------|
Bb|-------------------------------------------------------------------|
Gb|-14--14--14-14-14-----14-14-14-14----------------------------------|
Db|-11--11--11-12-12h14--14-12-11-11--14--14--14-14-14-----14-14-14---|
Ab|-0---0---0--0--0------0--0--0--0---14--14--11-12-12h14--14-12-11---|
Eb|-----------------------------------0---0---0--0--0------0--0--0----|
                                   
eb|-------------------------------------------------------------------|
Bb|-------------------------------------------------------------------|
Gb|-11--11--11-9--9-11br9-------14--14-14-14--14-14--14-14--14-14-----|
Db|-0---0---0--0--0-0-----11-9--11--11-11-11--11-12--12-12--12-11--9--|
Ab|-0---0---0--0--0-------------0---0--0--0---0--0---0--0---0--0---0--|
Eb|-------------------------------------------------------------------|

eb|-------------------------------------------------------------------|
Bb|-------------------------------------------------------------------|
Gb|-14--14--14-14-14-----14-14-14-14----------------------------------|
Db|-11--11--11-12-12h14--14-12-11-11--14--14--14-14-14-----14-14-14---|
Ab|-0---0---0--0--0------0--0--0--0---14--14--11-12-12h14--14-12-11---|
Eb|-----------------------------------0---0---0--0--0------0--0--0----|

eb|--------------------------------------------------------------|
Bb|-----------------------------------------3--3--3-3-3-3--3-3-3-|
Gb|-2--2-2----------------------------------2--2--2-2-2-2--2-2-2-|
Db|-0--0-0--7--7-7--7-7--4--4-----------4---0--0--0-0-0-0--0-0-0-|
Ab|-0--0-0--4--4-4--4-4--4--4--4-4-4-4--4---0--0--0-0-0-0--0-0-0-|
Eb|----------------------2--2--0-2-0-2--2------------------------|
                               . . . .


Done!!



| .  palm mute
| /  slide up
| \  slide down
| h  hammer-on
| p  pull-off
| ~  vibrato
| +  harmonic
| x  Mute note
=============================================================================
Composição de Günter Schulz
1.790 exibições
    • ½ Tom
    • A
    • Bb
    • B
    • C
    • Db
    • D
    • Eb
    • E
    • F
    • F#
    • G
    • Ab
  • Adicionar à lista

    0 comentários

    Mostrar mais comentários

    Conseguiu tocar?

    0 Tocaram 0 Ainda não

    Grave um vídeo tocando Down To My Last e mande pra gente!

    00:00 / 00:00
    outros vídeos desta música
    repetir qualidade Automático
    Outros vídeos desta música
    00:00 / 00:00
    Automático

    Cifra Club Pro

    Aproveite o Cifra Club com benefícios exclusivos e sem anúncios
    Cifra Club Pro
    Aproveite o Cifra Club com benefícios exclusivos e sem anúncios
    OK