Cifra Club

Aprenda

In Loving Memory

Alter Bridge

Cifra: Principal (violão e guitarra)
Tom: B
afinação : DbGbDbGbBbDb




intro
gtr1 clean w/ fingers (let ring throughout)
Db|-----------------------------------------------------------0-----|
Bb|-7-------8p7-----5-----5h7-5-0-------------------------------0---|
Gb|-----0-------0-----0-------------0-------2420----7-----7/9-----0-|
Db|---------------0-----------------------------4p0-0---0-----------|
Gb|-7-----7---------5---5---------------0-----------------7/9-------|
Db|-----------------------------------------------------------------|

gtr1
Db|---------0-------------------9~~~--------12109-------------------|
Bb|-5---------5-----5-----7-----------------------12----131210~~~~--|
Gb|-----0-------0---------------------0-----------------------------|
Db|-------------------------------------0---------------------------|
Gb|-5-----5---------5-----7-----0---------0-----------0---------0---|
Db|-----------------------------------------------------------------|

gtr1
Db|-----------------------------------------------------------0-----|
Bb|-7-------8p7-----5-----5h7-5-0-------------------------------0---|
Gb|-----0-------0-----0-------------0-------2420----7-----7/9-----0-|
Db|---------------0-----------------------------4p0-0---0-----------|
Gb|-7-----7--------\5---5---------------0-----------------7/9-------|
Db|-----------------------------------------------------------------|

gtr1
Db|---------0-------------------------------------------12-----*7---|
Bb|-5---------5-----5-----7-----8-----------8/1213----12-------*7---|
Gb|-----0-------0-------------------------7---------12---------*7---|
Db|-----------------------------------------------12----------------|
Gb|-5-----5---------5-----7-----0-------0-------------------(0)-----|
Db|-----------------------------------------------------------------|

verse1
gtr1  w/pick
Db|-0-------------0---0-0-----------0---0---0-----0---0-0-----------|
Bb|-3-------3---------3-3-----------3---3-3-3-----3---3-3-----------|
Gb|-2-------2---2-----2-2-2-2420--0-0---0-0-0---0-0---0-0-----------|
Db|-0-------0---0-------0-------4---2---2-2-2---2-----2-2-0-2420--0-|
Gb|-0-------0---0-------------------4---4-------4-----4-4-------4---|
Db|---------------------------------2-------------------------------|

gtr1
Db|-0---0-0-------0---0---0---------0---0-0-0-----0-0-0-0-----------|
Bb|-3---3-3-3---3-3---3---0---------5---5-5-5-----5-5-3-3-----3-0-0-|
Gb|-0---0-0-0---0-0---0---0-------0-0---0-0-0-----0-0-0-0-----0-0-0-|
Db|-4---4---4---4-4---4---4-----0---x---x-x-x-----x-x-x-x-----x-x-x-|
Gb|-2---2-------2-----------2/4-----5---5-5-5-----5-5-5-5-----5-5-5-|
Db|-----------------------------------------------------------------|

gtr1
Db|-0-------0-----0---0-0-----------0---0-0-0-----0---0-------------|
Bb|-3-------3---3-3---3-3-----------3---3-3-3-----3---3-------------|
Gb|-2-------2---2-----2-2-0-2420--0-0---0-0-0---0-----0-0-0-------0-|
Db|-0-------0---0-------0-------4-0-2---2-2-2---2-------2-0-2420--0-|
Gb|-0-------0---0-----------------0-4---4-4-4---4-------4-0-----4-0-|
Db|---------------------------------2-------------------------------|

gtr1
Db|-0-------0-----0---0-0-----0-0-0-0-----0-0-0-0-----0-0-0-0-0-0-0-|
Bb|-3-------3-----3---3-3-----3-0-0-1-----3-1-1-1/3---3-3-3-3-1-0-0-|
Gb|-0---0-0-0---0-0---0-0-----0-0-0-0-----0-0-0-0-----0-0-0-0-0-0-0-|
Db|-4---4-4-4---4-----4-4-----4-4-4-2-----2-2-2-2(x)--0-0-0-0-0-0-0-|
Gb|-2---2-2-2---2-----2-2-----2-2-2-0-----0-0-0-0-------------------|
Db|-----------------------------------------------------------------|

gtr1
Db|-0-------------0---0-0-----------0---0---0-----0---0-0-----------|
Bb|-3-------3---------3-3-----------3---3-3-3-----3---3-3-----------|
Gb|-2-------2---2-----2-2-2-2420--0-0---0-0-0---0-0---0-0-----------|
Db|-0-------0---0-------0-------4---2---2-2-2---2-----2-2-0-2420--0-|
Gb|-0-------0---0-------------------4---4-------4-----4-4-------4---|
Db|---------------------------------2-------------------------------|

gtr1
Db|-0---0-0-------0---0---0---------0---0-0-0-----0-0-0-0-----------|
Bb|-3---3-3-3---3-3---3---0---------5---5-5-5-----5-5-3-3-----3-0-0-|
Gb|-0---0-0-0---0-0---0---0-------0-0---0-0-0-----0-0-0-0-----0-0-0-|
Db|-4---4---4---4-4---4---4-----0---x---x-x-x-----x-x-x-x-----x-x-x-|
Gb|-2---2-------2-----------2/4-----5---5-5-5-----5-5-5-5-----5-5-5-|
Db|-----------------------------------------------------------------|

prechorus
gtr1
Db|-0-------------------------------0---0-0-0-----0---0-0-----------|
Bb|-3-------------------------------3---3-3-3-----3---3-3-----------|
Gb|-2---------------------2-2420--0-0---0-0-0---0-0---0-0-----------|
Db|-0---------------------------4---2---2-2-2---2-----2-2-0-2420--0-|
Gb|-0-------------------------------4---4-4-4---4-----4---------4---|
Db|---------------------------------2-------------------------------|

gtr1
Db|-0---0-0-0---0-0---0-0-----0-0-0-------0-0-0-0-----0-0-0-0-0-0-0-|
Bb|-3---3-3-3---3-3---3-3-----3-0-0-1-----3-1-1-1/3---3-3-3-3-1-0-0-|
Gb|-0---0-0-0---0-0-----0-----0-0-0-0-----0-0-0-0-----0-0-0-0-0-0-0-|
Db|-4---4-4-4---4-------4-----4-4-4-2-----2-2-2-2(x)--0-0-0-0-0-0-0-|
Gb|-2---2-2-2---2-------2-----2-2-2-0-----0-0-0-0-----0-0-0-0-0-0-0-|
Db|-0---------------------------------------------------------------|

chorus
gtr1
Db|-0-------0-----0-0-0-0-----0-0-0-0-----0-0-----0---0-0---0-0-0-0-|
Bb|-3-------3-----3-3-3-3-----3-3-3-3-----3-3-----3---3-3---3-3-3-3-|
Gb|-2-------2-----2-0-0-0-----0-0-0-0-----0-0-----0---0-0---0-0-0-0-|
Db|-0-------0-----0-0-0-0-----0-0-0-4-----4-4-----4---4-4---4-4-4-4-|
Gb|-0-------0-----0-0-0-0-----0-0-0-2-----2-2-----2---2-2---2-2-2-2-|
Db|---------------------------------0-----0-0-----0---0-0-----------|

gtr1
Db|-0---0-0-4---0-0-0-0-0---0-0-0-0-0-----0-0-0-0-----0-0-0-0-0-0-0-|
Bb|-3---3-3-3---3-3-3-3-3---3-3-3-0-1-----3-1-1-1/3---3-3-3-3-1-0-0-|
Gb|-0---0-0-0---0-0-0-0-0---0-0-0-0-0-----0-0-0-0-----0-0-0-0-0-0-0-|
Db|-2---2-2-2---2-2-2-2-2---2-2-2-2-2-----2-2-2-2(x)--0-0-0-0-0-0-0-|
Gb|-4---4-4-4---4-4-4-4-4---4-4-4-4-0-----0-0-0-0-----0-0-0-0-0-0-0-|
Db|-2---------------------------------------------------------------|

gtr1
Db|-0-------0-----0-0-0-0-----0-0-0-0-----0-0-----0---0-0---0-0-0-0-|
Bb|-3-------3-----3-3-3-3-----3-3-3-3-----3-3-----3---3-3---3-3-3-3-|
Gb|-2-------2-----2-0-0-0-----0-0-0-0-----0-0-----0---0-0---0-0-0-0-|
Db|-0-------0-----0-0-0-0-----0-0-0-4-----4-4-----4---4-4---4-4-4-4-|
Gb|-0-------0-----0-0-0-0-----0-0-0-2-----2-2-----2---2-2---2-2-2-2-|
Db|---------------------------------0-----0-0-----0---0-0-----------|

gtr1
Db|-0---0-0-0---0-0-0-0-0---0-0-0-0-0-----------0-------------------|
Bb|-3---3-3-3---3-3-3-3-3---3-3-0-0-1-----------1h3-----------------|
Gb|-0---0-0-0---0-0-0-0-0---0-0-0-0-0-----------0-------------------|
Db|-2---2-2-2---2-2-2-2-2---2-2-2-2-2-----------2-------------------|
Gb|-4---4-4-4---4-4-4-4-4---4-4-4-4-0-----------0-------------------|
Db|-2---------------------------------------------------------------|

Preverse
gtr1
Db|-0-------------0---0-0-----------0---0---0-----0---0-0-----------|
Bb|-3-------3---------3-3-----------3---3-3-3-----3---3-3-----------|
Gb|-2-------2---2-----2-2-2-2420--0-0---0-0-0---0-0---0-0-----------|
Db|-0-------0---0-------0-------4---2---2-2-2---2-----2-2-0-2420--0-|
Gb|-0-------0---0-------------------4---4-------4-----4-4-------4---|
Db|---------------------------------2-------------------------------|

gtr1
Db|-0---0-0-------0---0---0---------0---0-0-0-----0-0-0-0-----------|
Bb|-3---3-3-3---3-3---3---0---------5---5-5-5-----5-5-3-3-----3-0-0-|
Gb|-0---0-0-0---0-0---0---0-------0-0---0-0-0-----0-0-0-0-----0-0-0-|
Db|-4---4---4---4-4---4---4-----0---x---x-x-x-----x-x-x-x-----x-x-x-|
Gb|-2---2-------2-----------2/4-----5---5-5-5-----5-5-5-5-----5-5-5-|
Db|-----------------------------------------------------------------|


Verse2
gtr1
Db|-0-------------0---0-0-----------0---0---0-----0---0-0-----------|
Bb|-3-------3---------3-3-----------3---3-3-3-----3---3-3-----------|
Gb|-2-------2---2-----2-2-2-2420--0-0---0-0-0---0-0---0-0-----------|
Db|-0-------0---0-------0-------4---2---2-2-2---2-----2-2-0-2420--0-|
Gb|-0-------0---0-------------------4---4-------4-----4-4-------4---|
Db|---------------------------------2-------------------------------|

gtr1
Db|-0---0-0-------0---0---0---------0---0-0-0-----0-0-0-0-----------|
Bb|-3---3-3-3---3-3---3---0---------5---5-5-5-----5-5-3-3-----3-0-0-|
Gb|-0---0-0-0---0-0---0---0-------0-0---0-0-0-----0-0-0-0-----0-0-0-|
Db|-4---4---4---4-4---4---4-----0---x---x-x-x-----x-x-x-x-----x-x-x-|
Gb|-2---2-------2-----------2/4-----5---5-5-5-----5-5-5-5-----5-5-5-|
Db|-----------------------------------------------------------------|

gtr1
Db|-0-------0-----0---0-0-----------0---0-0-0-----0---0-------------|
Bb|-3-------3---3-3---3-3-----------3---3-3-3-----3---3-------------|
Gb|-2-------2---2-----2-2-0-2420--0-0---0-0-0---0-----0-0-0-------0-|
Db|-0-------0---0-------0-------4-0-2---2-2-2---2-------2-0-2420--0-|
Gb|-0-------0---0-----------------0-4---4-4-4---4-------4-0-----4-0-|
Db|---------------------------------2-------------------------------|

gtr1
Db|-0-------0-----0---0-0-----0-0-0-0-----0-0-0-0-----0-0-0-0-0-0-0-|
Bb|-3-------3-----3---3-3-----3-0-0-1-----3-1-1-1/3---3-3-3-3-1-0-0-|
Gb|-0---0-0-0---0-0---0-0-----0-0-0-0-----0-0-0-0-----0-0-0-0-0-0-0-|
Db|-4---4-4-4---4-----4-4-----4-4-4-2-----2-2-2-2(x)--0-0-0-0-0-0-0-|
Gb|-2---2-2-2---2-----2-2-----2-2-2-0-----0-0-0-0-------------------|
Db|-----------------------------------------------------------------|

gtr1
Db|-0-------------0---0-0-----------0---0---0-----0---0-0-----------|
Bb|-3-------3---------3-3-----------3---3-3-3-----3---3-3-----------|
Gb|-2-------2---2-----2-2-2-2420--0-0---0-0-0---0-0---0-0-----------|
Db|-0-------0---0-------0-------4---2---2-2-2---2-----2-2-0-2420--0-|
Gb|-0-------0---0-------------------4---4-------4-----4-4-------4---|
Db|---------------------------------2-------------------------------|

gtr1
Db|-0---0-0-------0---0---0---------0---0-0-0-----0-0-0-0-----------|
Bb|-3---3-3-3---3-3---3---0---------5---5-5-5-----5-5-3-3-----3-0-0-|
Gb|-0---0-0-0---0-0---0---0-------0-0---0-0-0-----0-0-0-0-----0-0-0-|
Db|-4---4---4---4-4---4---4-----0---x---x-x-x-----x-x-x-x-----x-x-x-|
Gb|-2---2-------2-----------2/4-----5---5-5-5-----5-5-5-5-----5-5-5-|
Db|-----------------------------------------------------------------|

prechorus
gtr1
Db|-0-------------------------------0---0-0-0-----0---0-0-----------|
Bb|-3-------------------------------3---3-3-3-----3---3-3-----------|
Gb|-2---------------------2-2420--0-0---0-0-0---0-0---0-0-----------|
Db|-0---------------------------4---2---2-2-2---2-----2-2-0-2420--0-|
Gb|-0-------------------------------4---4-4-4---4-----4---------4---|
Db|---------------------------------2-------------------------------|

gtr1
Db|-0---0-0-0---0-0---0-0-----0-0-0-------0-0-0-0-----0-0-0-0-0-0-0-|
Bb|-3---3-3-3---3-3---3-3-----3-0-0-1-----3-1-1-1/3---3-3-3-3-1-0-0-|
Gb|-0---0-0-0---0-0-----0-----0-0-0-0-----0-0-0-0-----0-0-0-0-0-0-0-|
Db|-4---4-4-4---4-------4-----4-4-4-2-----2-2-2-2(x)--0-0-0-0-0-0-0-|
Gb|-2---2-2-2---2-------2-----2-2-2-0-----0-0-0-0-----0-0-0-0-0-0-0-|
Db|-0---------------------------------------------------------------|
gtr2 w/ dist.
Db|----------------------------*5*5-------0-0-0-0-----0-0-0-0-0-0-0-|
Bb|----------------------------*5*5-1-----3-1-1-1/3---3-3-3-3-1-0-0-|
Gb|----------------------------*5*5-0-----0-0-0-0-----0-0-0-0-0-0-0-|
Db|----------------------------*5*5-2-----2-2-2-2(x)--0-0-0-0-0-0-0-|
Gb|----------------------------*5*5-0-----0-0-0-0-----0-0-0-0-0-0-0-|
Db|-----------------------------------------------------------------|


2nd Chorus
gtr2
Db|-5-------0-----0-0-0-0-----------0-----0-0-----0-0-0-0---0-0-0-0-|
Bb|-3-------3-----3-3-3-3-3-------0-3-----3-3-----3-3-3-3---3-3-3-3-|
Gb|-2-------2-----2-2-2-2-2-2420--0-2-----2-2-----2-2-2-2---2-2-2-2-|
Db|-0-------0-----0-0-0-0-------4-0-0-----0-0-----0-0-0-0---0-0-0-0-|
Gb|-0-------0-----0-0-0-0---------0-2-----2-2-----2-2-2-2---2-2-2-2-|
Db|-0-------------------------------0-----0-0-----0-0-0-0---0-0-0-0-|

gtr2
Db|-0---0-0-0---0-0-0-0-0-------0-0-0-------------------------------|
Bb|-3---3-3-3---3-3-3-3-3-------3-3-1-----1-1---1-1/3-3-3---3-1-0-0-|
Gb|-0---0-0-0---0-0-0-0-0-------0-0-0-----0-0---0-0---0-0---0-0-0-0-|
Db|-2---2-2-2---2-2-2-2-2-------2-2-2-----2-2---2-2(x)0-0---0-0-0-0-|
Gb|-4---4-4-4---4-4-4-4-4-------4-4-0-----0-0---0-0---0-0---0-0-0-0-|
Db|-2---------------------------------------------------------------|

gtr2                                            ^
Db|-5-------0-----0-0-0-0-----------0-----0-0-0-0-----0-0-0---------|
Bb|-3-------3-----3-3-3-3-3---------3-----3-3-3-3-----3-3-3---------|
Gb|-2-------2-----2-0-0-0-0-2420--0-2-----2-2-2-2-----2-2-2-2/4\2p0-|
Db|-0-------0-----0-0-0-0-0-----4-0-0-----0-0-0-0-----0-0-0-x----p0-|
Gb|-0-------0-----0-0-0-0-0-------0-2-----2-2-2-2-----2-2-2-2/4\2p0-|
Db|---------------------------------0-----0-0-0-0-------------------|

gtr2
Db|-0---0-0-0---0-0-0-0-0---0-0-0-0-0-----0-0-0-0-----0-0-0-0-0-0-0-|
Bb|-3---3-3-3---3-3-3-3-3---3-3-0-0-1-----1-1-1-1/3---3-3-3-3-1-0-0-|
Gb|-0---0-0-0---0-0-0-0-0---0-0-0-0-0-----0-0-0-0-----0-0-0-0-0-0-0-|
Db|-2---2-2-2---2-2-2-2-2---2-2-0-0-2-----2-2-2-2-----0-0-0-0-0-0-0-|
Gb|-4---4-4-4---4-4-4-4-4---4-4-0-0-0-----0-0-0-0-----0-0-0-0-0-0-0-|
Db|-2---2-2-2---2-2-2-2-2---2-2-0-0---------------------------------|



Bridge
gtr2
Db|-0-------0---0-0-0-----0-0-0-0-----0-0-0-0-0---0-0-----0-0-0-----|
Bb|-7-------7---7-7\5-----5-5-5-0-----0-0-0-1-0---0-7-----7-7-7\5---|
Gb|-0-------0---0-0-0-----0-0-0-0-----0-0-0-0-0---0-0-----0-0-0-----|
Db|-x-------x---x-x-x-----x-x-x-0-----0-0-0-0-0---0-x-----x-x-x-----|
Gb|-7-------7---7-7\5-----5-5-5-0-----0-0-0-0-0---0-7-----7-7-7\5---|
Db|-----------------------------0-----0-0-0-0-0---0-----------------|

gtr2
Db|-----------------------------0-----0-0-0-0-----0-0-0---0-0-0-0-0-|
Bb|-5-5-5-5---5-5-5-5---5-7-7-7-8-----8-8-8-8-----8-8-8---8-8-8-8-8-|
Gb|-0-0-0-0---0-0-0-0---0-0-0-0-0-----0-0-0-0-----0-0-0---0-0-0-0-0-|
Db|-x-x-x-x---x-x-x-x---x-x-x-x-5-----5-5-5-5-----5-5-5---5-5-5-5-5-|
Gb|-5-5-5-5---5-5-5-5---5-7-7-7-0-----0-0-0-0-----0-0-0---0-0-0-0-0-|
Db|-----------------------------0-----0-0-0-0-----0-0-0---0-0-0-0-0-|

gtr2
Db|-0-------0---0-0-0-----0-0-0-0-----0-0-0-0-0---0-0---0-0---0-----|
Bb|-7-------7---7-7\5-----5-5-5-0-----0-0-0-1-0---0-7---7-7---7\5---|
Gb|-0-------0---0-0-0-----0-0-0-0-----0-0-0-0-0---0-0---0-0---0-----|
Db|-x-------x---x-x-x-----x-x-x-0-----0-0-0-0-0---0-x---x-x---x-----|
Gb|-7-------7---7-7\5-----5-5-5-0-----0-0-0-0-0---0-7---7-7---7\5---|
Db|-----------------------------0-----0-0-0-0-0---0-----------------|

gtr2
Db|---0-0-0-0---0-0-0---0-0-0-0-0-----0-0-0-0---0-0-0---0-0-0---0---|
Bb|---5-5-5-5---5-5-5---5-7-7-7-8-----8-8-8-8---8-8-5---5-7-7---8---|
Gb|---0-0-0-0---0-0-0---0-0-0-0-0-----0-0-0-0---0-0-0---0-0-0---0---|
Db|---x-x-x-x---x-x-x---x-x-x-x-5-----5-5-5-5---5-5-x---x-x-x---5---|
Gb|---5-5-5-5---5-5-5---5-7-7-7-0-----0-0-0-0---0-0-5---5-7-7---0---|
Db|-----------------------------------------------------------------|

gtr2
Db|---0-0-0-0---0-0-0-----0-0-0-----0-------0-----0-0-0-0-----0-0-0-|
Bb|---8-8-8-8---8-8-5-----7-7-7-----8-------8-----8-8-8-8-----8-8-8-|
Gb|---0-0-0-0---0-0-0-----0-0-0-----0-------0-----0-0-0-0-----0-0-0-|
Db|---5-5-5-5---5-5-x-----x-x-x-----x-------x-----x-x-x-x-----x-x-x-|
Gb|---0-0-0-0---0-0-5-----7-7-7-----8-------8-----8-8-8-8-----8-8-8-|
Db|-----------------------------------------------------------------|

gtr2
Db|-0-----0-0-----0-0-0-0-----0-0-0-0-----0-0-----0-0-0-0-----0-0-0-|
Bb|-7-----7-7-----7-7-7-7-----7-7-7-5-----5-5-----5-5-5-5-----3-0-0-|
Gb|-0-----0-0-----0-0-0-0-----0-0-0-0-----0-0-----0-0-0-0-----0-0-0-|
Db|-x-----x-x-----x-x-x-x-----x-x-x-x-----x-x-----x-x-x-x-----x-x-x-|
Gb|-7-----7-7-----7-7-7-7-----7-7-7-5-----5-5-----5-5-5-5-----5-5-5-|
Db|-----------------------------------------------------------------|

gtr2(fade out under gtr1)
Db|-0---------------------------------------------------------------|
Bb|-0---------------------------------------------------------------|
Gb|-0---------------------------------------------------------------|
Db|-0---------------------------------------------------------------|
Gb|-0---------------------------------------------------------------|
Db|-0---------------------------------------------------------------|
gtr1
Db|-0-------------0---0-0-----------0---0---0-----0---0-0-----------|
Bb|-3-------3---------3-3-----------3---3-3-3-----3---3-3-----------|
Gb|-2-------2---2-----2-2-2-2420--0-0---0-0-0---0-0---0-0-----------|
Db|-0-------0---0-------0-------4---2---2-2-2---2-----2-2-0-2420--0-|
Gb|-0-------0---0-------------------4---4-------4-----4-4-------4---|
Db|---------------------------------2-------------------------------|

gtr1
Db|-0---0-0-------0---0---0---------0---0-0-0-----0-0-0-0-----------|
Bb|-3---3-3-3---3-3---3---0---------5---5-5-5-----5-5-3-3-----3-0-0-|
Gb|-0---0-0-0---0-0---0---0-------0-0---0-0-0-----0-0-0-0-----0-0-0-|
Db|-4---4---4---4-4---4---4-----0---x---x-x-x-----x-x-x-x-----x-x-x-|
Gb|-2---2-------2-----------2/4-----5---5-5-5-----5-5-5-5-----5-5-5-|
Db|-----------------------------------------------------------------|

gtr1
Db|-0-------0-----0---0-0-----------0---0-0-0-----0---0-------------|
Bb|-3-------3---3-3---3-3-----------3---3-3-3-----3---3-------------|
Gb|-2-------2---2-----2-2-0-2420--0-0---0-0-0---0-----0-0-0-------0-|
Db|-0-------0---0-------0-------4-0-2---2-2-2---2-------2-0-2420--0-|
Gb|-0-------0---0-----------------0-4---4-4-4---4-------4-0-----4-0-|
Db|---------------------------------2-------------------------------|

gtr1
Db|-0-------0-----0---0-0-----0-0-0-0-----0-0-0-0-----0-0-0-0-0-0-0-|
Bb|-3-------3-----3---3-3-----3-0-0-1-----3-1-1-1/3---3-3-3-3-1-0-0-|
Gb|-0---0-0-0---0-0---0-0-----0-0-0-0-----0-0-0-0-----0-0-0-0-0-0-0-|
Db|-4---4-4-4---4-----4-4-----4-4-4-2-----2-2-2-2(x)--0-0-0-0-0-0-0-|
Gb|-2---2-2-2---2-----2-2-----2-2-2-0-----0-0-0-0-------------------|
Db|-----------------------------------------------------------------|
gtr2 w/ dist. vol. swell
Composição de Brian Marshall / Mark Tremonti / Myles Kennedy / Scott Phillips
Colaboração e revisão:
  • Dialisom Souza
  • Valter Filho
60.197 exibições
    • ½ Tom
    • A
    • Bb
    • B
    • C
    • Db
    • D
    • Eb
    • E
    • F
    • F#
    • G
    • Ab
  • Adicionar à lista

    0 comentários

    Mostrar mais comentários

    Conseguiu tocar?

    4 Tocaram 0 Ainda não

    Grave um vídeo tocando In Loving Memory e mande pra gente!

    00:00 / 00:00
    outros vídeos desta música
    repetir qualidade Automático
    Outros vídeos desta música
    00:00 / 00:00
    Automático

    Cifra Club Pro

    Aproveite o Cifra Club com benefícios exclusivos e sem anúncios
    7 dias grátis
    Cifra Club Pro
    Aproveite o Cifra Club com benefícios exclusivos e sem anúncios
    7 dias grátis
    OK