Cifra Club

Aprenda

The End Is Here

Alter Bridge

Cifra: Principal (violão e guitarra)
tom: D
Drop D Tunning, Down 1 Step
(Low to High) C-G-C-F-A-D

Intro: D5
       C6/D Bb7M/D A/D Dsus2 D5 C6/D Bb7M/D D5

(Intro)
D|----21---20---18---18/20\18---17---17---15/17/18---17---15--|
A|------------------------------------------------------------|
F|----19---17---15---15/17\15---14---14---12/14/15---14---12--|
C|(0)----0----0----0----------0----0----0----------0----0-----|
G|------------------------------------------------------------|
C|------------------------------------------------------------|

D|----15/17\15---14---14--------------------------------------|
A|------------------------------------------------------------|
F|----12/14\12---11---11--------------------------------------|
C|--0----------0----0----0-0-0--------------------------------|
G|------------------------------------------------------------|
C|------------------------------------------------------------|

(Pre-verse)
D|-----------------------------------------------------------------|
A|-----------------------------------------------------------------|
F|--7--7-------9---10------7---7------6--6--7-7/9---9-7---7-7/9-9--|
C|--x--x-------10--10------8---8------7--7--x-x-----x-x---x-x---10-|
G|--5--5-------7---8-------5---5------4--4--5-5/7---7-5---5-5/7-7--|
C|--0--0--0-0--0---0---0-0-0---0--0-0-0--0--0-0(0)--0-0---0-0-0-0--|

D|-----------------------------------------|
A|-------------------5h6p5-8-6-5-----------|
F|--10------7---7----------------7-5-------|
C|--10------8---8--------------------8-7~~-|
G|--8-------5---5--0-----------------------|
C|--0---0-0-0---0--0-----------------------|

(Verse 1)
C6/D    Bb7M/D
Endless days
     A                Dsus2 D5 C6/D
We search for what we hold inside
Bb7M/D     A/D  D5
So hard to find
C6/D Bb7M/D
Luck turns
           A         Dsus2 D5 C6/D
Will the fallen ever reach within
Bb7M/D    C/D
And rise again

(Verse 1)
D|-----------------------------------------------------------------|
A|-----------------------------------------------------------------|
F|--7--7-------9---10------7---7------6--6--7-7/9---9-7---7-7/9-9--|
C|--x--x-------10--10------8---8------7--7--x-x-----x-x---x-x---10-|
G|--5--5-------7---8-------5---5------4--4--5-5/7---7-5---5-5/7-7--|
C|--0--0--0-0--0---0---0-0-0---0--0-0-0--0--0-0(0)--0-0---0-0-0-0--|

D|------------------------------|
A|------------------------------|
F|--10------7---7----6--6-6--6/-|
C|--10------8---8----7--7-7--7/-|
G|--8-------5---5----4--4-4--4/-|
C|--0---0-0-0---0--0-0--0-0--0--|

D|---------------|
A|---------------|
F|---------------|
C|-x-0-3---3-3---|
G|-x-0-3---3-3---|
C|-x-0-3---3-3---|

(Chorus)
         D9        A/C# A5 Bb7M(#11)
For the rest of my life
Bb5   D5 G5 Gb5 F5
I will find the answers
            C5   G6/B
That were always here
D5 Eb5 D5 Eb5     D9         A/C# A5 Bb7M(#11)
I will find the meaning this time
Bb5       G5 Gb5 F5
I will fight the end
         C5     G6/B          D5
Till the end is here, end is here

(Chorus)
D|------------------------------------------------------------------|
A|--3--------10-10--------------------------------------------------|
F|--2----6----9--9----5----5b(1)r~--4-------------------------------|
C|--0----7----7--8----3----x--------5-------------------------------|
G|--0----4----7--8----3----3b(1)r---2------0-0-0-1b~---0-0-0-1b/----|
C|--0---------7--8----3--------------------0-0-0-1b~---0-0-0-1b/----|
                                        pm . . .    pm . . .
D|-------------------------------------------------------------------|
A|--3--------10-10---------------------------------------------------|
F|--2----6----9--9--------5----5b(1)r~--4----------------------------|
C|--0----7----7--8--------3----x--------5-------let ring----------0--|
G|--0----4----7--8----0-0-3----3b(1)r---2-------------------------0--|
C|--0---------7--8----0-0-3---------------------------------------0--|
                   pm . .

( C6/D Bb7M/D A/D Dsus2 D5 C6/D Bb7M/D A D5 )

(Pre-Verse 2)
D|-----------------------------------------------------------------|
A|-----------------------------------------------------------------|
F|--7--7-------9---10------7---7------6--6--7-7/9---9-7---7-7/9-9--|
C|--x--x-------10--10------8---8------7--7--x-x-----x-x---x-x---10-|
G|--5--5-------7---8-------5---5------4--4--5-5/7---7-5---5-5/7-7--|
C|--0--0--0-0--0---0---0-0-0---0--0-0-0--0--0-0(0)--0-0---0-0-0-0--|

D|------------------------------------------------|
A|------------------------------------------------|
F|--10------7---7---------6-7-9~------------------|
C|--10------8---8-------7--------7p5-7~-----------|
G|--8-------5---5--0--5-----------------(7)/8-5~--|
C|--0---0-0-0---0--0------------------------------|

(Verse 2)
C6/D   Bb7M/D
Wasted time
       A                Dsus2 D5  C6/D
With words that seem to break our will
Bb7M/D       A/D  D5
The bind us still
C6/D      Bb7M/D
Without a care
                      D5     C6/D
They tarnish what we hold so dear
     Bb7M/D       C/D
What was once so clear

(refrão)
         D9        A/C# A5 Bb7M(#11)
For the rest of my life
Bb5   D5 G5 Gb5 F5
I will find the answers
            C5   G6/B
That were always here
D5 Eb5 D5 Eb5     D9         A/C# A5 Bb7M(#11)
I will find the meaning this time
Bb5       G5 Gb5 F5
I will fight the end
         C5     G6/B          D5
Till the end is here, end is here

( D5 )

(Interlude)
D|----22---20---18---18/20\18---17---17---15/17/18---17---15--|
A|------------------------------------------------------------|
F|----19---17---15---15/17\15---14---14---12/14/15---14---12--|
C|(0)----0----0----0----------0----0----0----------0----0-----|
G|------------------------------------------------------------|
C|------------------------------------------------------------|

D|----15/17\15---14---14--------|
A|------------------------------|
F|----12/14\12---11---11--------|
C|--0----------0----0----0-0-0--|  (2x)
G|------------------------------|
C|------------------------------|

D|------------------------------------------------------------|
A|------------------------------------------------------------|
F|----19---17---15---15/17\15---14---14---12/14/15---14---12--|
C|------------------------------------------------------------|
G|----17---15---13---13/15\13---12---12---10/12/13---12---10--|
C|-------0----0----0----------0----0----0----------0----0-----|

D|------------------------------|
A|------------------------------|
F|----12/14\12--11---11---------|
C|------------------------------|  (2x)
G|----10/12\10---9----9---------|
C|--0----------0----0----0-0-0--|

D|-----------------------------------------------------------|
A|-----------------------------------------------------------|
F|----19----17----15----15/17-15----14----14----12/14-15-----|
C|----x-----x-----x-----x-----x-----x-----x-----x-----x------|
G|----17-00-15-00-13-00-13/15-13-00-12-00-12-00-10/12-13-00--|
C|-------00----00----00----------00----00----00----------00--|

D|------------------------------------|
A|------------------------------------|
F|--14----12----12/14-12----11----11--|
C|--x-----x-----x-----x-----x-----x---|  (2x)
G|--12-00-10-00-10/12-10-00-9--00-9---|
C|-----00----00----------00----00-----|

D|-----------------------------------------------------------------|
A|-----------------------------------------------------------------|
F|----19~----17~----15~---15/17-15~----14~----14~----12/14-15~-----|
C|-----x------x------x-----x-----x------x------x------x-----x------|
G|----17~----15~----13~---13/15-13~----12~----12~----10/12-13~-----|
C|-----------------------------------------------------------------|

D|------------------------------------------|
A|------------------------------------------|
F|--14~----12~----12/14-12~---11~----11~~---|
C|--x------x------x-----x-----x------x------|
G|--12~----10~----10/12-10~---9~-----9~~----|
C|------------------------------------------|

D|--------------------------------------------------------------|
A|--------------------------------------------------------------|
F|----19-----15-----17-----14-----15---12---15-----12-----11~~--|
C|----x------x------x------x------x----x----x------x------x-----|
G|----17-0-0-13-0-0-15-0-0-12-0-0-13-0-10-0-13-0-0-10-0-0-9~~---|
C|-------0-0----0-0----0-0----0-0----0----0----0-0----0-0-------|

(Chorus)
         D9        A/C# A5 Bb7M(#11)
For the rest of my life
Bb5   D5 G5 Gb5 F5
I will find the answers
            C5   G6/B
That were always here
D5 Eb5 D5 Eb5     D9         A/C# A5 Bb7M(#11)
I will find the meaning this time
Bb5       G5 Gb5 F5
I will fight the end
         C5     G6/B ( D5 Eb5 D5 Eb5 D5 Eb5 D5 Eb5 )
Till the end is here…

End:         D5
(Attacks)    Eb5 F5 D5 (6x)
(Intro Riff) D5
(Last Chord) D

"Here" (4:04) - palm mute all 0's

D|--------------------------|
A|--------------------------|
F|--------------------------|
C|--------------------------|
G|--0-1b--0-1b--0-1b--0-1b--|
C|--0-1b--0-1b--0-1b--0-1b--|

D|-------------------------------------------------------|
A|-------------------------------------------------------|
F|-------------------------------------------------------|
C|------------------------------------------5~0-5~0------|
G|--0-0--0-3b--0-0--0-1b--0-0--0-3b--0-0--0---------5-3--|
C|--0-0--0-3b--0-0--0-1b--0-0--0-3b--0-0--0--------------|
                                            w/ wah
D|-------------------------------------------------------|
A|-------------------------------------------------------|
F|-------------------------------------------------------|
C|------------------------------------------5~0-0tr(1)---|
G|--0-0--0-3b--0-0--0-1b--0-0--0-3b--0-0--0--------------|
C|--0-0--0-3b--0-0--0-1b--0-0--0-3b--0-0--0--------------|
                                            w/ wah
Composição de Günter Schulz / Myles Kennedy
Colaboração e revisão:
  • Matheus
  • Vinicius Fernandes
  • Dudlei Landim
6.127 exibições
    • ½ Tom
    • A
    • Bb
    • B
    • C
    • Db
    • D
    • Eb
    • E
    • F
    • F#
    • G
    • Ab
  • Adicionar à lista

    0 comentários

    Ver todos os comentários

    Conseguiu tocar?

    0 Tocaram 0 Ainda não

    Grave um vídeo tocando The End Is Here e nos envie!

    00:00 / 00:00
    outros vídeos desta música
    repetir qualidade Automático
    Outros vídeos desta música
    00:00 / 00:00
    Automático

    Cifra Club Pro

    Aproveite o Cifra Club com benefícios exclusivos e sem anúncios
    Cifra Club Pro
    Aproveite o Cifra Club com benefícios exclusivos e sem anúncios
    OK