Cifra Club

Pan con mantequilla

Amen

Cifra: Principal (violão e guitarra)
Selo Cifra Club: esta cifra foi revisada para atender aos critérios oficiais da nossa Equipe de Qualidade.
tom: G
  G(G  )     C(DO)     D(D )
E|------| e|------  e|------
B|------| B|------  B|------
G|------| G|--5---  G|--7---
D|--5---| D|--5---  D|--7---
A|--5---| A|--3---  A|--5---
E|--3---| E|------  E|------

===========================================================================

RIFFS:
======

Riff 1:               Riff 2:         Riff 3:

E|------12--------| e|----------|   e|--------------------|
B|--------| <11>..--|   B|--11^..---|   B|--------------------|
G|---12-----------| G|----------|   G|-12-10h12h10h12-----| x3
D|-10-------------| D| ---------|   D|--------------------|
A|----------------| A|----------|   A|--------------------|
E|----------------| E|----------|   E|--------------------|

Riff 4:       Riff 5:                      Riff 6:

E|--13| >>--|   e| --------------------------|   e|------------------------|
B|--12| >>--|   B|--14^-14-12-10-12---10^/<<-|   B|--------------11^ ------|
G|--10^.--| G|------------------12-------|   G|----10-12^ 12----10-12--|
D|--------| D|---------------------------|   D|-12---------------------|
A|--------| A|---------------------------|   A|------------------------|
E|--------| E|---------------------------|   E|------------------------|

Riff 7:
E|-------------15/-15/----15-17/18-17-15----------|
B|-------15/17---------17----------------17-15----|
G|-15/16---------------------------------------16-|
D|------------------------------------------------|
A|------------------------------------------------|
E|------------------------------------------------|

Riff 8:
e|--15| >>>>>>>>------15>>>>>>>>--------15>>>>>>>>--|
B|-<18>>>>>>>>-----<18>>>>>>>>-------<18>>>>>>>>--|
G|------------------------------------------------|
D|------------------------------------------------|
A|------------------------------------------------|
E|------------------------------------------------|

Riff 9:
E|----------------15-| <18>----------|
B|-------15/17-17----------((15))--|
G|-15/16---------------------------|
D|---------------------------------|
A|---------------------------------|
E|---------------------------------|


(Empieza acompañado del bajo)
                                                      Riff 1
Yo soy de un barrio humilde, un simple musico del blues
                                                      Riff 2
yo soy de un barrio humilde, un simple musico del blues

no tengo posesiones y siempre voy en autobus
        G5          C5                G5
No tengo piscina ni carroS pa' regalar
        C5                            G5 - Riff 3
no tengo piscina ni carros pa' regalar
        D5              C5                   (G5)
pero tengo una vecina, que se compro un celular
              G5                  C5                   G5 - Riff 4
Yo soy de una barrio humilde, un simple musico del blues
              C5                                       G5 - Riff 5
yo soy de un barrio humilde, un simple musico del blues
         D5            C5
no tengo posesiones y siempre voy en autobus

en autobus!


Solo: G - C7 - G - C7 - G - D7 - C7 - G
e|--15| >>>>>>>>>>>>>---15-15-13---------------------------------------|
B|-<18>>>>>>>>>>>>>---18-17-15--11/12.---13/14.-14/13----------------|
G|------------------------------11/12.----------------12-10h12p10----|
D|----------------------------------------------------------------12-|
A|-------------------------------------------------------------------|
E|-------------------------------------------------------------------|

e|--15| >>>>>>>>>>>---15-15-13--------------------------------|
B|-<18>>>>>>>>>>>---18-17-15--11/12.--13/14.-12-------------|
G|----------------------------11/12.------------10-12/-12.--|
D|----------------------------------------------------------|
A|----------------------------------------------------------|
E|----------------------------------------------------------|

e|--15| >>>------19/20.--18/20-18-------20/22.-----
B|-<18>>>-(17)------------------20-18--------20--
G|-----------------------------------------------|
D|-----------------------------------------------|
A|-----------------------------------------------|
E|-----------------------------------------------|

e|------15---15---15-------------------|
B|--<17>---17---16---15-15--<11>/15..--
G|-------------------------------------|
D|-------------------------------------|
A|-------------------------------------|
E|-------------------------------------|

E|---------15| <<<----18-18.-18-18-18.-18-18---------------15--------|
B|-12| <<<<--15<<<----20-20.-20-20-20.-20-20---------15-17----17-15--|
G|-10| <<<<------------------------------------15/16-----------------|
D|-12| <<<<----------------------------------------------------------|
A|-10| <<<<----------------------------------------------------------|
E|-----------------------------------------------------------------|

E|---------------------------------------------15----18/17----15-----|
B|-18-17-15---------------11-------------15/17----17-------17----17--|
G|---------15-15/16.---12----12--10| <<<-------------------------------|
D|-------------------------------12| <<<-------------------------------|
A|-------------------------------------------------------------------|
E|-------------------------------------------------------------------|

E|------------------15/-15/17-15----| <18>-17-15----------<18>-17-15--------|
B|-15/14/13-12-12----------------17-------------17-15-17-----------17-15--|
G|---------------12-------------------------------------------------------|
D|------------------------------------------------------------------------|
A|------------------------------------------------------------------------|
E|------------------------------------------------------------------------|

E|-------------15----------13| >>>>>--12>>>>>-----13>>>>>--------------|
B|-------15-17----17-15----12| >>>>>--11>>>>>-----12>>>>>---12--11-10--|
G|-15-16-------------------10| >>>>>--9>>>>>>-----10>>>>>---10--9--8---|
D|--------------------------------------------------------12--11-10--|
A|-------------------------------------------------------------------|
E|-------------------------------------------------------------------|

                                                     Riff 6
Yo soy de un barrio humilde, te miro desde Ventanilla
                                               Riff 7
yo nunca pago el cine te miro desde Ventanilla
                                                    Riff 8
yo no como el pavo, me gusta el pan con mantequilla.
             G5                 C5                   G5- Riff 4
Yo soy de un barrio humilde, un simple músico de blues
             C5                                      G5
yo soy de un barrio humilde, un simple músico de blues
           D5           C5                  Riff 9
no tengo posesiones y siempre voy en autobus.



Weno espero que les sirva de algo -.- esta es mi segunda
transcripcion asi que derrepente hay algunos errores aunq
creo q esta un 98% bien, pero cualkier duda escribanme a mi
Outros vídeos desta música
    1.973 exibições
      • ½ Tom
      • A
      • Bb
      • B
      • C
      • Db
      • D
      • Eb
      • E
      • F
      • F#
      • G
      • Ab
    • Adicionar à lista

    Afinação da cifra

    Afinador online

      0 comentários

      Ver todos os comentários

      Entre para o Cifra Club PRO

      Tenha acesso a benefícios exclusivos no App e no Site

      • Chega de anúncios

      • Badges exclusivas

      • Mais recursos no app do Afinador

      • Atendimento Prioritário

      • Aumente seu limite de lista

      • Ajude a produzir mais conteúdo

      Cifra Club Pro

      Aproveite o Cifra Club com benefícios exclusivos e sem anúncios
      Cifra Club Pro
      Aproveite o Cifra Club com benefícios exclusivos e sem anúncios
      Ops (: Contenido disponible sólo en portugués.
      OK