Cifra Club

Lisboa - Madrid

ANAVITÓRIA

Cifra: Principal (violão e guitarra)
Selo Cifra Club: esta cifra foi revisada para atender aos critérios oficiais da nossa Equipe de Qualidade.
tom: Bb (forma dos acordes no tom de A) Capotraste na 1ª casa
[Intro] Bm7  F#m  A7M  E
        Bm7  F#m  A7M  E

[Tab - Intro]

    Bm7                        F#m
E|-------2-----2-------------2-----2--------|
B|-------3-----3-------------2-----2--------|
G|----2-------------------2-----------------|
D|------------------------------------------|
A|-2--------2-----0-------------------------|
E|----------------------2-------2------0----|

         A7M                  E
E|-------0-----0-------------0-----0--------|
B|-------3-----3-------------0-----0--------|
G|----1-------------------1-----------------|
D|------------------------------------------|
A|-0--------0-----0-------------------------|
E|----------------------0-------0------0----|

          Bm7               F#m
E|-------2-----2-------------2-----2--------|
B|-------3-----3-------------2-----2--------|
G|----2-------------------2-----------------|
D|------------------------------------------|
A|-2--------2-----0-------------------------|
E|----------------------2-------2------0----|

          A7M                E
E|-------0-----0-------------0--------------|
B|-------3-----3-------------0--------------|
G|----1----------------------1--------------|
D|---------------------------2--------------|
A|-0--------0-----0----------2--------------|
E|---------------------------0--------------|

[Primeira Parte]

                    Bm7                    F#m
Quisiera que este cuarto fuera el universo
                 A7M                      E
Quedarnos sin salir de aquí la vida entera
              Bm7                     F#m
Sin alejarme más de tu querer perverso
                   A7M               E
Por mí ya no hace falta más carretera

[ de dilhado - Primeira Parte]

         Bm7               F#m
E|-------2-----2-------------2-----2--------|
B|-------3-----3-------------2-----2--------|
G|----2-------------------2-----------------|
D|------------------------------------------|
A|-2--------2-----0-------------------------|
E|----------------------2-------2------0----|

          A7M                  E
E|-------0-----0-------------0-----0--------|
B|-------3-----3-------------0-----0--------|
G|----1-------------------1-----------------|
D|------------------------------------------|
A|-0--------0-----0-------------------------|
E|----------------------0-------0------0----|

         Bm7                 F#m
E|-------2-----2-------------2-----2--------|
B|-------3-----3-------------2-----2--------|
G|----2-------------------2-----------------|
D|------------------------------------------|
A|-2--------2-----0-------------------------|
E|----------------------2-------2------0----|

          A7M                 E
E|-------0-----0-------------0-----0--------|
B|-------3-----3-------------0-----0--------|
G|----1-------------------1-----------------|
D|------------------------------------------|
A|-0--------0-----0-------------------------|
E|----------------------0-------0------0----|

[Pré-Refrão]

              Bm7                   F#m
Te veo desde lejos y te quiero cerca
                A7M                        E
Bebiendo de mi sombra, quiero ser tu rastro
                 Bm7                    F#m
Entrar en la pantalla y tocar tus labios
                 A7M
Te quiero a ti aquí en mi boca
     E                  D7M   Bm7
Que ya no aguanta esta sed
      F#m           A
Esta se-e-e-e-e-e-ed

[ de dilhado - Pré-Refrão]

          Bm7                F#m
E|-------2-----2-------------2-----2--------|
B|-------3-----3-------------2-----2--------|
G|----2-------------------2-----------------|
D|------------------------------------------|
A|-2--------2-----0-------------------------|
E|----------------------2-------2------0----|

         A7M                 E
E|-------0-----0-------------0-----0--------|
B|-------3-----3-------------0-----0--------|
G|----1-------------------1-----------------|
D|------------------------------------------|
A|-0--------0-----0-------------------------|
E|----------------------0-------0------0----|

          Bm7                F#m
E|-------2-----2-------------2-----2--------|
B|-------3-----3-------------2-----2--------|
G|----2-------------------2-----------------|
D|------------------------------------------|
A|-2--------2-----0-------------------------|
E|----------------------2-------2------0----|

           A7M                 E
E|-------0-----0-------------0-----0--------|
B|-------3-----3-------------0-----0--------|
G|----1-------------------1-----------------|
D|------------------------------------------|
A|-0--------0-----0-------------------------|
E|----------------------0-------0------0----|

     D7M       Bm7       F#m        F#m
E|--------2---------------------------------|
B|------2------------3---------2-------2----|
G|----2------------2---------2-------2------|
D|--0------------4---------4-------4--------|
A|-------------2----------------------------|
E|-----------------------2-------2----------|

[Refrão]
            D7M           Bm7
Vuelve a jurarme que es real
           F#m          A7M
No se me ocurre algo mejor
         D7M             Bm7
Una vez más quiero escuchar
             F#m          A7M
Que sientes lo mismo que yo

[ de dilhado - Refrão]

          D7M                  Bm7
E|------2-----2-----------------------------|
B|------2-----2-----------3-----3-----------|
G|----2-----2-----2-------2-----2-----------|
D|--0-----0-----0-------4-----4-----4-------|
A|--------------------2-----2-----2---------|
E|------------------------------------------|

           F#m              F#m
E|------------------------------------------|
B|------2-----2------------2------2---------|
G|------2-----2------------2------2---------|
D|----4-----4-----4------4------4------4----|
A|------------------------------------------|
E|--2-----2-----2------2------2------2------|

           D7M             Bm7
E|------2-----0-----------------------------|
B|------2-----2-----------3-----2-----------|
G|----2-----2-----2-------2-----2-----------|
D|--0-----0-----0-------4-----4-----4-------|
A|--------------------2-----2-----2---------|
E|------------------------------------------|

              F#m              F#m
E|------------------------------------------|
B|------2-----2------------2------2---------|
G|------2-----2------------2------2---------|
D|----4-----4-----4------4------4------4----|
A|------------------------------------------|
E|--2-----2-----2------2------2------2---2--|
    Bm7                        F#m
E|-------2-----2-------------2-----2--------|
B|-------3-----3-------------2-----2--------|
G|----2-------------------2-----------------|
D|------------------------------------------|
A|-2--------2-----0-------------------------|
E|----------------------2-------2------0----|

         A7M                  E
E|-------0-----0-------------0-----0--------|
B|-------3-----3-------------0-----0--------|
G|----1-------------------1-----------------|
D|------------------------------------------|
A|-0--------0-----0-------------------------|
E|----------------------0-------0------0----|

          Bm7               F#m
E|-------2-----2-------------2-----2--------|
B|-------3-----3-------------2-----2--------|
G|----2-------------------2-----------------|
D|------------------------------------------|
A|-2--------2-----0-------------------------|
E|----------------------2-------2------0----|

          A7M                E
E|-------0-----0-------------0--------------|
B|-------3-----3-------------0--------------|
G|----1----------------------1--------------|
D|---------------------------2--------------|
A|-0--------0-----0----------2--------------|
E|---------------------------0--------------|

[Primeira Parte]

                    Bm7                    F#m
Quisiera que este cuarto fuera el universo
                 A7M                      E
Quedarnos sin salir de aquí la vida entera
              Bm7                     F#m
Sin alejarme más de tu querer perverso
                   A7M               E
Por mí ya no hace falta más carretera

[ de dilhado - Primeira Parte]

         Bm7               F#m
E|-------2-----2-------------2-----2--------|
B|-------3-----3-------------2-----2--------|
G|----2-------------------2-----------------|
D|------------------------------------------|
A|-2--------2-----0-------------------------|
E|----------------------2-------2------0----|

          A7M                  E
E|-------0-----0-------------0-----0--------|
B|-------3-----3-------------0-----0--------|
G|----1-------------------1-----------------|
D|------------------------------------------|
A|-0--------0-----0-------------------------|
E|----------------------0-------0------0----|

         Bm7                 F#m
E|-------2-----2-------------2-----2--------|
B|-------3-----3-------------2-----2--------|
G|----2-------------------2-----------------|
D|------------------------------------------|
A|-2--------2-----0-------------------------|
E|----------------------2-------2------0----|

          A7M                 E
E|-------0-----0-------------0-----0--------|
B|-------3-----3-------------0-----0--------|
G|----1-------------------1-----------------|
D|------------------------------------------|
A|-0--------0-----0-------------------------|
E|----------------------0-------0------0----|

[Pré-Refrão]

              Bm7                   F#m
Te veo desde lejos y te quiero cerca
                A7M                        E
Bebiendo de mi sombra, quiero ser tu rastro
                 Bm7                    F#m
Entrar en la pantalla y tocar tus labios
                 A7M
Te quiero a ti aquí en mi boca
     E                  D7M   Bm7
Que ya no aguanta esta sed
      F#m           A
Esta se-e-e-e-e-e-ed

[ de dilhado - Pré-Refrão]

          Bm7                F#m
E|-------2-----2-------------2-----2--------|
B|-------3-----3-------------2-----2--------|
G|----2-------------------2-----------------|
D|------------------------------------------|
A|-2--------2-----0-------------------------|
E|----------------------2-------2------0----|

         A7M                 E
E|-------0-----0-------------0-----0--------|
B|-------3-----3-------------0-----0--------|
G|----1-------------------1-----------------|
D|------------------------------------------|
A|-0--------0-----0-------------------------|
E|----------------------0-------0------0----|

          Bm7                F#m
E|-------2-----2-------------2-----2--------|
B|-------3-----3-------------2-----2--------|
G|----2-------------------2-----------------|
D|------------------------------------------|
A|-2--------2-----0-------------------------|
E|----------------------2-------2------0----|

           A7M                 E
E|-------0-----0-------------0-----0--------|
B|-------3-----3-------------0-----0--------|
G|----1-------------------1-----------------|
D|------------------------------------------|
A|-0--------0-----0-------------------------|
E|----------------------0-------0------0----|

     D7M       Bm7       F#m        F#m
E|--------2---------------------------------|
B|------2------------3---------2-------2----|
G|----2------------2---------2-------2------|
D|--0------------4---------4-------4--------|
A|-------------2----------------------------|
E|-----------------------2-------2----------|

[Refrão]
            D7M           Bm7
Vuelve a jurarme que es real
           F#m          A7M
No se me ocurre algo mejor
         D7M             Bm7
Una vez más quiero escuchar
             F#m          A7M
Que sientes lo mismo que yo

[ de dilhado - Refrão]

          D7M                  Bm7
E|------2-----2-----------------------------|
B|------2-----2-----------3-----3-----------|
G|----2-----2-----2-------2-----2-----------|
D|--0-----0-----0-------4-----4-----4-------|
A|--------------------2-----2-----2---------|
E|------------------------------------------|

           F#m              F#m
E|------------------------------------------|
B|------2-----2------------2------2---------|
G|------2-----2------------2------2---------|
D|----4-----4-----4------4------4------4----|
A|------------------------------------------|
E|--2-----2-----2------2------2------2------|

           D7M             Bm7
E|------2-----0-----------------------------|
B|------2-----2-----------3-----2-----------|
G|----2-----2-----2-------2-----2-----------|
D|--0-----0-----0-------4-----4-----4-------|
A|--------------------2-----2-----2---------|
E|------------------------------------------|

              F#m              F#m
E|------------------------------------------|
B|------2-----2------------2------2---------|
G|------2-----2------------2------2---------|
D|----4-----4-----4------4------4------4----|
A|------------------------------------------|
E|--2-----2-----2------2------2------2---2--|

[Ponte]

         D7M           Bm7
Dímelo ahora, por favor
            F#m          A7M
Sin que me dejes de abrazar
           D7M          Bm7
Te quiero casi con dolor
              F#m             A
Y es junto a ti que quiero estar
     D7M              E    Em7(4)
Y si es por mí, va a ser así
      F#m7             B
Tú y yo sin más que hacer

          Bm7      F#m
Sin otro fin que amar
          A7M      E
Sin otro fin que amar
          Bm7      F#m
Sin otro fin que amar
          A7M      E
Sin otro fin que amar

[ de dilhado - Ponte]

Parte 1 de 3
           D7M            Bm7
E|------2-----2-----------------------------|
B|------2-----2-----------3-----3-----------|
G|----2-----2-----2-------2-----2-----------|
D|--0-----0-----0-------4-----4-----4-------|
A|--------------------2-----2-----2---------|
E|------------------------------------------|

         F#m                 F#m
E|------------------------------------------|
B|------2-----2------------2------2---------|
G|------2-----2------------2------2---------|
D|----4-----4-----4------4------4------4----|
A|------------------------------------------|
E|--2-----2-----2------2------2------2------|

         D7M                 Bm7
E|------2-----0-----------------------------|
B|------2-----2-----------3-----2-----------|
G|----2-----2-----2-------2-----2-----------|
D|--0-----0-----0-------4-----4-----4-------|
A|--------------------2-----2-----2---------|
E|------------------------------------------|

         F#m                 F#m
E|------------------------------------------|
B|------2-----2------------2------2---------|
G|------2-----2------------2------2---------|
D|----4-----4-----4------4------4------4----|
A|------------------------------------------|
E|--2-----2-----2------2------2------2---2--|

Parte 2 de 3

      D7M      E      Em7(4)  F#m7     A
E|--------2---------------------------------|
B|------2---------0--------0-------2-----2--|
G|----2---------1--------0-------2------2---|
D|--0---------2--------0-------2-------2----|
A|-----------------------------------0------|
E|----------0--------1-------2--------------|

Parte 3 de 3

        Bm7                    F#m
E|-------2-----2-------------2-----2--------|
B|-------3-----3----3--------2-----2-----2--|
G|----2-------------------2-----------------|
D|------------------------------------------|
A|-2--------2-----0-------------------------|
E|----------------------2-------2------0----|

           A7M                 E
E|-------0-----0-------------0-----0--------|
B|-------3-----3----3--------0-----0-----0--|
G|----1-------------------1-----------------|
D|------------------------------------------|
A|-0--------0-----0-------------------------|
E|----------------------0-------0------0----|

           Bm7                F#m
E|-------2-----2-------------2-----2--------|
B|-------3-----3----3--------2-----2-----2--|
G|----2-------------------2-----------------|
D|------------------------------------------|
A|-2--------2-----0-------------------------|
E|----------------------2-------2------0----|

          A7M                 E
E|-------0-----0-------------0-----0--------|
B|-------3-----3----3--------0-----0-----0--|
G|----1-------------------1-----------------|
D|------------------------------------------|
A|-0--------0-----0-------------------------|
E|----------------------0-------0------0----|

[Final] Bm7  F#m  A7M  E
        Bm7  F#m  A7M  E
Outros vídeos desta música
26.029 exibições
    • ½ Tom
    • A
    • Bb
    • B
    • C
    • Db
    • D
    • Eb
    • E
    • F
    • F#
    • G
    • Ab
  • Adicionar à lista

Afinação da cifra

Afinador online

    0 comentários

    Ver todos os comentários

    Entre para o Cifra Club PRO

    Tenha acesso a benefícios exclusivos no App e no Site

    • Chega de anúncios

    • Mais recursos no app do Afinador

    • Atendimento Prioritário

    • Aumente seu limite de lista

    • Ajude a produzir mais conteúdo

    Cifra Club Pro

    Aproveite o Cifra Club com benefícios exclusivos e sem anúncios
    Cifra Club Pro
    Aproveite o Cifra Club com benefícios exclusivos e sem anúncios
    OK