Cifra Club

Com Fé

André Valadão

Cifra: Principal
exibições 57.240
Tom: C
Intro 4x:

E|--------------------------------------------|
B|--------------------------------------------|
G|--------------------------------------------|
D|-------------------------------------5h6-5--|
A|-------3--------3-3h5-------3--------5h6-5--|
E|-3h4h5----3h4h5-------3h4h5----3h4h5--------|

Am      C    G      D       Am  C  G  D
Somos o povo mais feliz da terra
Am    C     G     D     Am  C  G  D
Temos fé para vencer o mundo

    Am       C          G     D
Com fé as montanhas vão cair
    Am       C          G     D
Com fé a tristeza vai sair
    Am   C           G     D
Com fé a vida vai mudar
    Am    C             G     D
Com fé eu posso testemunhar

(Intro)

F       Dm            Am          C9
 Eu falarei para a montanha ir ao mar
F      Dm     Am     C9
 E ela cairá, cairá, cairá!
F       Dm            Am          C9
 Eu falarei para a montanha ir ao mar
F      Dm     Am      C9
 E ela cairá, cairá!

(Intro)

Solo: Am  C  G  D

E|-15/--15-12----15-12----15-12----15-12----15/17-|
B|------------13-------13-------13-------13-------|
G|------------------------------------------------|
D|------------------------------------------------|
A|------------------------------------------------|
E|------------------------------------------------|

E|-19b-20-19--------------------------------------|
B|-----------20-17--------------------------------|
G|-----------------19-17-16b----------------------|
D|------------------------------------------------|
A|------------------------------------------------|
E|------------------------------------------------|

E|-19/20\19------19/20\19/20\19-----19/20\19-----------------|
B|-----------17-----------------17-----------17-15-13-12-12b-|
G|-----------------------------------------------------------|
D|-----------------------------------------------------------|  2x
A|-----------------------------------------------------------|
E|-----------------------------------------------------------|

E|-19/20\19------19/20\19/20\19------------------------------|
B|-----------17-----------------17---------------------------|
G|-----------------------------------------------------------|
D|------------------------------------------------6-5----7---|
A|----------------------------------------3-------6-5----7---|
E|----------------------------------3h4h5---3h4h5--------5---|
Acordes para:

    0 comentários

      mostrar mais comentários

      Conseguiu tocar?

      9tocaram0ainda não

      Grave um vídeo tocando Com Fé e mande pra gente!

      00:00 / 00:00
      outros vídeos desta música
      repetirqualidadeautomática
      Outro vídeos desta música
        00:00 / 00:00
        automática
        OK