Enviar cifraEntrar

Dívida de Amor

André Valadão

Cifra: Principal
exibições 56.602
Tom: G
Intro: G  Cm  Am  D9

 G
Sou feliz
Cm                Am          D9
Não ando na escuridão da solidão
 G             Cm            Am     D9
Não vou chorar de tristeza

 G
Sou Feliz
Cm            Am         D9
 A tua luz encheu meu coração
 G
Vou me alegrar
Cm           Am         D9
Posso até chorar de gratidão

( Em  D9  Am  Cm )

Am               D9
Como posso expressar
      G     D/F#     Em
Tão grande amor por mim?
Am          D9        G    D/F#  Em
Como posso pagar essa dívida de amor?
           Am
Só posso entregar
      D9             G
Minha vida em teu altar

Am               D9
Como posso expressar
      G     D/F#    Em
Tão grande amor por mim?
Am         D9        G    D/F#   Em
Como posso pagar essa dívida de amor?
           Am       D9
Só posso entregar minha vida
              Am             D9
Só posso entregar    minha   vida
              Am             D9
Só posso entregar    minha   vida
        G
Em teu altar

Instrumental: C  D  D/F#  G  G  C  D  E

Bm               E ( ou E/G# )
Como posso expressar
      A     E/G#    F#m
Tão grande amor por mim?
Bm          E/G#        A    E/G#  F#m
Como posso pagar essa dívida de amor?
            Bm       E/G#
Só posso entregar minha vida
          A
Em teu altar

Final: A  Dm  A  Dm  A
Solo:

E|------------------------------------------------------------------|
B|----------5-7/8-7---7-8-(----7-8-9-10-----7-8-9-10)---------------|} (Todas as notas abafdas)
G|--3/5--7----------9-----(7-9----------7-9---------)---------------|} (Todas as notas abafdas)
D|------------------------------------------------------------------|
A|------------------------------------------------------------------|
E|------------------------------------------------------------------|


E|------------------------------------------------------------------|
B|-13-12---15-13-12----13-12--15-13-12------------------------------|
G|------12---------12-------12--------14-12-------------------------|   (2x)
D|------------------------------------------------------------------|
A|------------------------------------------------------------------|
E|------------------------------------------------------------------|


E|--------------14-15--17b19r17b20--16b17r16------------------------|
B|--15b16r15b17------------------------------17---------------------|
G|------------------------------------------------------------------|
D|------------------------------------------------------------------|
A|------------------------------------------------------------------|
E|------------------------------------------------------------------|


E|-17-16-14---------------------------------------------------------|
B|---------17-15-14-19-17-15----------------------------------------|
G|---------------------------18-16-14-19-18-16----------------------|
D|---------------------------------------------19-18-16-19-18-16----|
A|------------------------------------------------------------------|
E|------------------------------------------------------------------|


E|------------------------------------------------------------------|
B|------------------------------------------------------------------|
G|------------------------------------------------------------------|
D|------------------------------------------------------------------|
A|-19-18-17-16~~----------------------------------------------------|
E|------------------------------------------------------------------|


Solo - Baixo:

E|------------------------------------------------------------------|
B|------------------------------------------------------------------|
G|------------------------------------------------------------------|
D|------------------------------------------------------------------|
A|-------------12----14--------15/17--------------------------------|
E|-12-14/15-14----10----12--14--------------------------------------|

  • 1
  • 2
  • 3
  • 4
  • 5
  • 6
  • 7
  • 8
  • 9
  • 10
  • 11
  • 12
    Acordes para:
      Composição: André ValadãoColaboração e revisão:

      0 comentários

        mostrar mais comentários

        Conseguiu tocar?

        1tocaram0ainda não

        Grave um vídeo tocando Dívida de Amor e mande pra gente!

        00:00 / 00:00
        outros vídeos desta música
        repetirqualidadeautomática
        • automática
        Outro vídeos desta música
          00:00 / 00:00
          automática
          • automática
          Acordes para:violão e guitarra
          dificuldadeexibiçõescontribuições
          1 versão de Tab de baixoexibiçõescontribuições
          2 versões de Guitar Proformatodownloadscontribuição
          fecharplay/pause subir/descer velocidade
            acordes
            fechar
            OK
            Feedback