Enviar cifraEntrar

Livre sou

André Valadão

Cifra: Principal
exibições 93.729
Tom: A#
Introdução: C5 Eb5 F5 G5 (4x) 
 
          C5          Eb5        F5 G5 
Cristo me resgatou 
       
         C5                   Eb5   F/A G5  
Tudo em mim transformou 

         C5    Eb5      Bb5     F5 
Hoje livre sou 

            C5        Eb5     F5 Ab5  G5
Para o Seu louvor 

C5         Eb5                   F5        G5      
Neste dia o seu milagre vai acontecer 

     C5         Eb5                      F5        Bb5 F5 
A morte de Jesus na cruz foi só para você 

C5          Eb5            Bb5  F5      G5 
Nada vai te impedir de viver o milagre 

C5          Bb5     A5   Ab5    G
Nada vai te impedir de viver 
 

Cm7 
Jesus 
Senhor 
Cm7 
Jesus 

Salvador C Eb F G Bb (tocar somente as notas)
Cm7 
Meu milagre 
É Jesus 
Cm7 
Sua morte 
 
Minha vida C Eb F G Bb (tocar somente as notas)

(Solo:Ab5 : Bb5 : C5 Cm/Eb: Ab  G  : Cm : Ab Bb5 : Cm Cm/Eb : Ab G A )  depois sobe 1 tom.


SOLO:  
 

E|----------------------------------------------------| 
B|----12b13-13-13-13-13-13-13~~-----------------------| 
G|------------------------------------10h12p10/8-8h10-| 
D|-10------------------------------13-----------------| 
A|----------------------------------------------------| 
E|----------------------------------------------------| 

 

E|-------------------------------------------------| 
B|-------------------------------------------------| 
G|-8p7-8p7-5-7b8-7-5~--12t5h7p5-13t7h8p7-15t8h10p8-| 
D|-------------------------------------------------| 
A|-------------------------------------------------| 
E|-------------------------------------------------| 

 

E|------------------------------------------------| 
B|------------------------------------------------| 
G|-17t10h12p10-19t10h12p10-20t10h12p10-t20b22-12~-| 
D|------------------------------------------------| 
A|------------------------------------------------| 
E|------------------------------------------------| 

 

E|-15~-18b20-18-16-15-18-16-15---------------------| 
B|----------------------------18-16-15-------------| 
G|-------------------------------------17-15-13-12-| 
D|-------------------------------------------------| 
A|-------------------------------------------------| 
E|-------------------------------------------------| 

 

E|--------------------------------------------------| 
B|--------------------------------------------------| 
G|--------------------------------------------------| 
D|-15-13-12----------------------10-12-13-12-13-15--| 
A|---------15-13-11-10-10-11-13---------------------| 
E|--------------------------------------------------| 

 

E|-------------------------------------------20b23~~-|| 
B|---------13-15-16-15-16-18-16-18-20~-21b23~--------|| 
G|-12-13-15------------------------------------------|| 
D|---------------------------------------------------|| 
A|---------------------------------------------------|| 
E|---------------------------------------------------|| 


Solo corrigido by tosim ;)
  • 1
  • 2
  • 3
  • 4
  • 5
  • 6
  • 7
  • 8
  • 9
  • 10
  • 11
  • 12
    Acordes para:
      Composição: André ValadãoColaboração e revisão:

      0 comentários

        mostrar mais comentários

        Conseguiu tocar?

        3tocaram0ainda não

        Grave um vídeo tocando Livre sou e mande pra gente!

        00:00 / 00:00
        outros vídeos desta música
        repetirqualidadeautomática
        • automática
        Outro vídeos desta música
          00:00 / 00:00
          automática
          • automática
          Acordes para:violão e guitarra
          dificuldadeexibiçõescontribuições
          2 versões de Guitar Proformatodownloadscontribuição
          fecharplay/pause subir/descer velocidade
            acordes
            fechar
            OK
            Feedback