Cifra Club

Pela Fé

André Valadão

Cifra: Principal (violão e guitarra)
tom: F# (forma dos acordes no tom de F) Capotraste na 1ª casa
[Intro]

E|--------------------------------------|
B|---10-10-10-8-8-8-8-8-----------------|
G|--------------------------------------|
D|--------------------------------------|
A|--------------------------------------|
E|--------------------------------------|

E|--------------------------------------|
B|---10-10-10-8-8/----------------------|
G|--------------------------------------|
D|--------------------------------------|
A|--------------------------------------|
E|--------------------------------------|

 F                Dm
Pela fé posso clamar
 Bb                 C
Pela fé posso enxergar
 F               Dm
Pela fé posso tocar
 Bb       C
Pela fé, pela fé

 Bb   C      Dm
Não  há   muralhas
C/E      Bb
Que ficarão de pé
     C     Dm
Diante de mim

E|--------------------------------|
B|--------------------------------|
G|---------3----------------------|
D|-3-3-2---3----------------------|
A|-------3-1----------------------|
E|--------------------------------|

Bb  C      Dm     C/E
Es-tou firmado em Cristo
  Bb        C
Pra sempre tenho
   Dm
A luz em mim, aleluia

E|-------------------------------|
B|---10-10-10-8-8-8-8-8----------|
G|-------------------------------|
D|-------------------------------|
A|-------------------------------|
E|-------------------------------|

E|-------------------------------|
B|---10-10-10-8-8/---------------|
G|-------------------------------|
D|-------------------------------|
A|-------------------------------|
E|-------------------------------|

 F             Dm
Pela fé posso mudar
 Bb                 C
Pela fé posso alcançar
 F               Dm
Pela fé posso viver
 Bb         C
Pela fé, pela fé

 Bb   C      Dm
Não  há   muralhas
C/E     Bb
Que ficarão de pé
  C     Dm
Diante de mim

Bb  C      Dm     C/E
Es-tou firmado em Cristo
  Bb        C
Pra sempre tenho
   Dm
A luz em mim

E|------------------------------|
B|------------------------------|
G|---------3--------------------|
D|-3-3-2---3--------------------|
A|-------3-1--------------------|
E|------------------------------|

[Final] F  Gm  Bb  C 
        F  Gm  Bb  C  F
00:00 / 00:00
Outros vídeos desta música
Repetir
Outros vídeos desta música
Composição de André Valadão
929.921 exibições
    • ½ Tom
    • A
    • Bb
    • B
    • C
    • Db
    • D
    • Eb
    • E
    • F
    • F#
    • G
    • Ab
  • Adicionar à lista

    0 comentários

    Ver todos os comentários

    Entre para oCifra Club PRO

    Tenha acesso a benefícios exclusivos no App e no Site

    • Chega de anúncios

    • Prioridade de compra em lançamentos

    • Mais recursos no app do Afinador

    • Atendimento Prioritário

    • Descontos nos produtos Cifra Club

    • Ajude a produzir mais conteúdo

    00:00 / 00:00

    Cifra Club Pro

    Aproveite o Cifra Club com benefícios exclusivos e sem anúncios
    Cifra Club Pro
    Aproveite o Cifra Club com benefícios exclusivos e sem anúncios
    OK