Cifra Club

Que Se Abram Os Céus

André Valadão

Cifra: Principal (violão e guitarra)
Tom: D
 D
Tu És bem-vindo aqui
                Bm
E em nosso coração
 G          D
Toma a direção
 D
Deus fogo consumidor
                  Bm
Sem impedimentos vem
        G        D
Face a face, senhor

 G  A     Bm
Sopra em nós
   G  A  Bm
Espí-ri-to
 G   A  Bm     A
Te que-remos, Deus

[Solo]  Bm  D  Bm  A

Parte 1 de 2
E|------------------------------------------|
B|--------------------8--7---7-7-7-7-7------|
G|-7-7-7-7-7-7-7-7----------7-7-7-7-7-7-----|
D|--9-9-9-9-9-9-9-9-------------------------|
A|------------------------------------------|
E|------------------------------------------|

Parte 2 de 2
E|------------------------------------------|
B|-8--7---7-7-7-7-7---7--5---5-5-5-5-5------|
G|-------7-7-7-7-7-7--------7-7-7-7-7-7-----|
D|------------------------------------------|
A|------------------------------------------|
E|------------------------------------------|

          D
Estou de pé 
                             
Na presença do Rei  
                   Bm
Tua glória está aqui
      G           D
Teu amor liberta-me
         D
Estás aqui

No trono de louvor
                   Bm
Tua presença me curou
      G         D
Fascinado eu estou      

 G  A     Bm
Sopra em nós
   G  A  Bm
Espí-ri-to
 G   A  Bm     A
Te que-remos, Deus
 G  A     Bm
Sopra em nós
   G  A  Bm
Espí-ri-to
 G   A  Bm     A
Te que-remos, Deus
 G  A     Bm
Sopra em nós
   G  A  Bm
Espí-ri-to
 G   A  Bm     A
Te que-remos, Deus
 
[Solo]  Bm  D  Bm  A
        Bm  D  Bm  A

Parte 1 de 2
E|------------------------------------------|
B|--------------------8--7---7-7-7-7-7------|
G|-7-7-7-7-7-7-7-7----------7-7-7-7-7-7-----|
D|--9-9-9-9-9-9-9-9-------------------------|
A|------------------------------------------|
E|------------------------------------------|

Parte 2 de 2
E|------------------------------------------|
B|-8--7---7-7-7-7-7---7--5---5-5-5-5-5------|
G|-------7-7-7-7-7-7--------7-7-7-7-7-7-----|
D|------------------------------------------|
A|------------------------------------------|
E|------------------------------------------|

       Bm
Que se abram os céus
             G
O teu reino vem
            Bm
Nossa fé está
          A
No nosso Deus
       Bm
Que se abram os céus
             G
O teu reino vem
            Bm
Nossa fé está
          A
No nosso Deus
       Bm
Que se abram os céus
             G
O teu reino vem
            Bm
Nossa fé está
          A
No nosso Deus

        Bm
Que os céus fechados se abram
     G
Teu reino venha mover
   Bm
A nossa fé e esperança
          A
Estão em Deus Grande Deus
        Bm
Que os céus fechados se abram
     G
Teu reino venha mover
   Bm
A nossa fé e esperança
          A
Estão em Deus Grande Deus

[Solo]  Bm  D  Bm  A
        Bm  D  Bm  A
        Bm  D  Bm  A  D

Parte 1 de 2
E|------------------------------------------|
B|--------------------8--7---7-7-7-7-7------|
G|-7-7-7-7-7-7-7-7----------7-7-7-7-7-7-----|
D|--9-9-9-9-9-9-9-9-------------------------|
A|------------------------------------------|
E|------------------------------------------|

Parte 2 de 2
E|------------------------------------------|
B|-8--7---7-7-7-7-7---7--5---5-5-5-5-5------|
G|-------7-7-7-7-7-7--------7-7-7-7-7-7-----|
D|------------------------------------------|
A|------------------------------------------|
E|------------------------------------------|
exibições 26.789
Acordes para:
    Colaboração e revisão:
    • Lucas Kappaun

    0 comentários

    mostrar mais comentários

    Conseguiu tocar?

    4 tocaram 1 ainda não

    Grave um vídeo tocando Que Se Abram Os Céus e mande pra gente!

    00:00 / 00:00
    outros vídeos desta música
    repetir qualidade Automático
    Outros vídeos desta música
    00:00 / 00:00
    Automático
    OK