Cifra Club

Vou Vencer

André Valadão

Cifra: Principal (violão e guitarra)
exibições 51.602
Tom: G
INTRO         Em    D        Bm      C         Em     D              A
                      Em7    D        Bm7      C         Em7     D/F#        C2

Intro:
E|--------------------------------------------------5---------|
B|-8-7------8-7-5---5-7-8-7--------------5-7-8-7-8----8-7-8---|
G|-----7-9-------------------7-9-9/11-9-----------------------|
D|------------------------------------------------------------|
A|------------------------------------------------------------|
E|------------------------------------------------------------|

 Em7           D/F#   G2     Em7  D      C2
POSSO OLHAR AS MINHAS MÃOS E VER SOU LIMITADO
Em7          D/F#     G2     Em7          D  C2       |   Dsus4  D  |
POSSO LER EM TUA PALAVRA EM CRISTO SOU CAPACITADO
Em7        D/F#       G2   Em7  D      C2
TENHO UMA ESCOLHA A FAZER  DUVIDAR OU CRER
Em7        D/F#  G2           Em7     D C2      |   Dsus4    |  D   |
TENHO UM CAMINHO A TRILHAR  PERDER            OU VENCER

       G/B     C2      Em7       D
VOU VENCER
   G/B         C2      Em7   D
EM CRISTO SOU MAIS QUE VENCEDOR
   G/B   C2   C/E    D/F#
VENCER
1ª      G/B       C2        Em7        DG/B       C2        Dsus4      D
MEU MILAGRE BATE A PORTA


ESTROFE


      G/B     C2      Em7       D
VOU VENCER
        G/B   C2       Em7   D
EM CRISTO SOU MAIS QUE VENCEDOR
   G/B     C2      C/E       D/F#
VENCER
     G/B    C2         Dsus4      D
MEU MILAGRE BATE A PORTA

Ponte  |   C    |    D/C   |    C    Em7   |    D/C   |


C            D/C
TOC TOC TOC TOC
      C     Em7    D/C
MEU MILAGRE BATE A PORTA   (3x)
Am7         G/B
TOC TOC TOC TOC
        C2                                 Dsus4                     D
EU ABRO A PORTA EU ABRO A PORTA

      G/B     C2      Em7       D
VOU VENCER
        G/B   C2       Em7   D
EM CRISTO SOU MAIS QUE VENCEDOR
   G/B     C2      C/E       D/F#
VENCER
1ª   G/B         C2           Em7        DG/B         C2           Dsus4      D
MEU MILAGRE BATE A PORTA

FIM   |   C    |    D/C   |    C    Em7   |    D   |    C    |    D/C   |    C    G/B   |   A   ||


(03 19)
E|-----------------------10b12---7b8--------------------------|
B|-------------10b12-10--------------8------------------------|
G|-----7-7-9---------------------------7/5/4-5----------------|
D|-5/7-----------------------------------------5-5------------|
A|------------------------------------------------------------|
E|------------------------------------------------------------|

E|------------------------------------------------------------|
B|---------------------------8---7----------------------------|
G|---------------7-7-7/9-9---8---7----------------------------|
D|---5-5-7---7/9-------------9---7----------------------------|
A|-7----------------------------------------------------------|
E|------------------------------------------------------------|
Acordes para:
    Composição: André Valadão Colaboração e revisão:

    0 comentários

    mostrar mais comentários

    Conseguiu tocar?

    0 tocaram 0 ainda não

    Grave um vídeo tocando Vou Vencer e mande pra gente!

    00:00 / 00:00
    outros vídeos desta música
    repetir qualidade Automático
    Outros vídeos desta música
    00:00 / 00:00
    Automático
    OK