Cifra Club

Anomaly

Angels & Airwaves

Cifra: Principal (violão e guitarra)
Tom: A
Intro:
E|-x-x-x---------------------------------------------------------------------|
B|-x-x-x------10-9-7---------------------------------------------------------|
G|-x-x-x------9--9-9---------------------------------------------------------|
D|-x-x-x------x--x-x---------------------------------------------------------|
A|-x-x-x------0--0-0---------------------------------------------------------|
E|-x-x-x---------------------------------------------------------------------|

Verso:
E|---------------------------------------------------------------------------|
B|--10-9-7-------------------------------------------------------------------|
G|--9--9-9-------------------------------------------------------------------|
D|--x--x-x-------------------------------------------------------------------|
A|--0--0-0-------------------------------------------------------------------|
E|---------------------------------------------------------------------------|

Refrão:
E|---------------------------------------------------------------------------|
B|---------------------------------------------------------------------------|
G|--7------------------------------------------------------------------------|
D|--7-4-2--------------------------------------------------------------------|
A|--5-4-2--------------------------------------------------------------------|
E|----2-0--------------------------------------------------------------------|

(Verso)
(Refrão)

Ponte:
E|---------------------------------------------------------------------------|
B|---------------------------------------------------------------------------|
G|--6-7-6-7-4-2-4-2----------------------------------------------------------|
D|--x-x-x-x-x-x-x-x----------------------------------------------------------|
A|--4-5-4-5-2-0-2-0----------------------------------------------------------|
E|---------------------------------------------------------------------------|

(Refrão)

Final:
E|---------------------------------------------------------------------------|
B|---------------------------------------------------------------------------|
G|------------------------------9--------------------------------------------|
D|-2----------------------------9--------------------------------------------|
A|-2----or if you want to on----7--------------------------------------------|
E|-0-------------------------------------------------------------------------|
exibições 660
Acordes para:
    Composição: Tom DeLonge Colaboração e revisão:
    • Marcos Paulo

    0 comentários

    mostrar mais comentários

    Conseguiu tocar?

    1 tocaram 0 ainda não

    Grave um vídeo tocando Anomaly e mande pra gente!

    00:00 / 00:00
    outros vídeos desta música
    repetir qualidade Automático
    Outros vídeos desta música
    00:00 / 00:00
    Automático
    OK